Ken's Stage (Street Fighter 2) Bass/Guitar Tab

Submitted: Dec 28, 2010 by auriplane (Last updated: Jan 22, 2011)

5
Average: 5 (3 votes)
Download | Listen
Game: Street Fighter 2
Composer(s): Yoko Shimomura
Style: 2 or more instruments, Alternate picking, Transcription

AutoScroll: Slow | Medium | Fast
                Street Fighter II - Ken's Stage GUITAR & BASS TAB
                             Song by Yoko Shimomura

                     Tabbed by auriplane ([email protected])


This tab has the melody and the bassline.  I transcribed everything else as
best I could, but you'll have to download the GP5 file to see the other parts.



                               GUITAR PART

        Part A


Rest for eight measures.


        Part B

e |------------6-4-|--3-------------|------------6-4-|--3-------------|
B |--------6-------|----6-----4---6-|--------6-------|----6-----4---6-|
G |----5-----------|----------------|----5-----------|----------------|
D |----------------|----------------|----------------|----------------|
A |----------------|----------------|----------------|----------------|
E |----------------|----------------|----------------|----------------|


e |------------6-8-|--9-8-6-----6-8-|------6---------|----------------|
B |--------6-------|----------9-----|------------9---|8---6-5---------|
G |----5-----------|----------------|----------------|----------------|
D |----------------|----------------|----------------|----------------|
A |----------------|----------------|----------------|----------------|
E |----------------|----------------|----------------|----------------|


        Part B' (variation)

e |------------6-4-|--3-------------|------------6-4-|--3-------------|
B |--------6-------|----6-----4---6-|--------6-------|----6-----4---6-|
G |----5-----------|----------------|----5-----------|----------------|
D |----------------|----------------|----------------|----------------|
A |----------------|----------------|----------------|----------------|
E |----------------|----------------|----------------|----------------|


e |------------6-8-|--9-8-6-------8-|----6-----------|----------------|
B |--------6-------|----------9-8---|------------9---|8---9-8---------|
G |----5-----------|----------------|----------------|----------------|
D |----------------|----------------|----------------|----------------|
A |----------------|----------------|----------------|----------------|
E |----------------|----------------|----------------|----------------|


        Part C

e |----------------|------6---------|------8---------|------------6-8-|
B |6-----8---------|9---------9-8-6-|----------------|----------------|
G |----------------|----------------|6---------------|----------------|
D |----------------|----------------|----------------|----------------|
A |----------------|----------------|----------------|----------------|
E |----------------|----------------|----------------|----------------|


e |----------------|----------------|----------------|------6---------|
B |----------------|--------------6-|------8---------|9---------9-8-6-|
G |----------------|----------------|----------------|----------------|
D |----------------|----------------|----------------|----------------|
A |----------------|----------------|----------------|----------------|
E |----------------|----------------|----------------|----------------|


e |------8---------|------------6-8-|----------------|----------------|
B |----------------|----------------|----------------|----------------|
G |6---------------|----------------|----------------|----------------|
D |----------------|----------------|----------------|----------------|
A |----------------|----------------|----------------|----------------|
E |----------------|----------------|----------------|----------------|


        Part D

e |------------6-8-|----6-----------|----------------|----------------|
B |--------6-------|------9---8---9-|----8-6-------6-|------6-8-9-----|
G |----5-----------|----------------|----------8-----|----------------|
D |----------------|----------------|----------------|----------------|
A |----------------|----------------|----------------|----------------|
E |----------------|----------------|----------------|----------------|


e |----6---------6-|--6-------------|--------------8-|--8-8-8-8-8---8-|
B |--------9---8---|----9---8---9-8-|----6-------6---|----------------|
G |----------------|----------------|--------9-------|----------------|
D |----------------|----------------|----------------|----------------|
A |----------------|----------------|----------------|----------------|
E |----------------|----------------|----------------|----------------|


e |----6-------6---|----------------|----------------|----------------|
B |--------9-----9-|----8-6-------9-|----8-6-------6-|------6-8-9-----|
G |----------------|----------5-----|----------8-----|----------------|
D |----------------|----------------|----------------|----------------|
A |----------------|----------------|----------------|----------------|
E |----------------|----------------|----------------|----------------|


e |----6---8---9-8-|--8-6-----------|----------------|----------------|
B |----------------|--------9---5-8-|---6------------|----------------|
G |----------------|----------------|----------------|----------------|
D |----------------|----------------|----------------|----------------|
A |----------------|----------------|----------------|----------------|
E |----------------|----------------|----------------|----------------|

        Repeat back to Part B.






                                 BASS PART



        Part A

G |----------------|----------------|----------------|----------------|
D |----------------|--------3-1-----|----------------|----------------|
A |----------------|--------------4-|----------------|----------4-3-1-|
E |1---------------|------1---------|----------------|----------------|


G |----------------|----------------|----------------|----------------|
D |----------------|----------------|----------------|--------------3-|
A |--1-1-1-1-1-1-1-|1-1-1-1-1-1-1-3-|--3-3-3-3-3-3-3-|3-3-3-3-3-3-3---|
E |----------------|----------------|----------------|----------------|


        Part B   (play twice)

G |----------------|----------------|----------------|----------------|
D |--3-3-3-3-3-3-3-|3-3-3---3-1-----|----------------|----------------|
A |----------------|--------------4-|--4-4-4-4-4-4-4-|4-4-4-4-4-4-3-1-|
E |----------------|------1---------|----------------|----------------|

                                                      First ending
G |----------------|----------------|----------------|----------------|
D |----------------|----------------|----------------|--------------3-|
A |--1-1-1-1-1-1-1-|1-1-1-1-1-----3-|--3-3-3-3-3-3-3-|3-3-3-3-3-3-----|
E |----------------|----------3-----|----------------|----------------|

                                                      Second ending
                                                     |----------------|
                                                     |----------------|
                                                     |3-3-3-3-3-3-----|
                                                     |----------------|
        Part C

G |----------------|----------------|----------------|----------------|
D |----------------|----------------|----------------|----------------|
A |4-----4---------|4-----4---4-3---|1-----1---------|1-----1---1-3---|
E |----------------|----------------|----------------|--------------1-|


G |----------------|----------------|----------------|----------------|
D |----------------|----------------|----------------|----------------|
A |------3-6-5-----|--3-6-5-------4-|------4---------|4-----4---4-4---|
E |--1-4---------1-|4-----------1---|----------------|----------------|


G |----------------|----------------|--------5-3---5-|----------------|
D |1-----1---------|1-----1---1-1---|----2-5---------|--------------3-|
A |----------------|--------------3-|--3-------------|--3-3-3-3-3-----|
E |----------------|----------------|----------------|----------------|


        Part D

G |----------------|----------------|----------------|----------------|
D |--3-3-3-3-3-3-3-|3-3-3---3-1-----|----------------|----------------|
A |----------------|--------------4-|--4-4-4-4-4-4-4-|4-4-4-4-4-4-3-1-|
E |----------------|------1---------|----------------|----------------|


G |----------------|----------------|----------------|----------------|
D |----------------|----------------|----------------|--------------3-|
A |--1-1-1-1-1-1-1-|1-1-1-1-1-----3-|--3-3-3-3-3-3-3-|3-3-3-3-3-------|
E |----------------|----------3-----|----------------|----------------|


G |----------------|----------------|----------------|----------------|
D |--3-3-3-3-3-3-3-|3-3-3---3-1-----|----------------|--------------1-|
A |----------------|--------------4-|--4-4-4-4-4-4-4-|4-4-4-4-4-4-4---|
E |----------------|------1---------|----------------|----------------|


G |----------------|----------------|----------------|----------------|
D |--1-1-1-1-1-1-1-|2-2-2-2-2-2---3-|----------------|----------3---3-|
A |----------------|----------------|----------------|----------------|
E |----------------|----------------|----------------|--------1-------|

        Repeat back to Part B.


Login or Register to remove this ad.

2 comments on Ken's Stage

Nice auri. Very good!

Nice auri. Very good!

Terrific!

5

Fun, sounds great, and easy to play. Terrific tabs!