Guile's Theme (Street Fighter 2) Guitar Tab

Submitted: Apr 02, 2013 by Alfa_ice

5
Average: 5 (8 votes)
Download | Listen
Game: Street Fighter 2
Composer(s): Yoko Shimomura
Style: Arrangement, Fingerstyle

AutoScroll: Slow | Medium | Fast
                                Guile's Theme                                   


Tabbed by: Alfa_ice
Standard tuning: EADGBE
Difficulty: Medium
100bpm



      E  S E  S Q    Q    E     E  S E  S Q    Q    E   
E||--------------------------|-------------------------|
B||---5--5-4--4-5----L-------|--5--5-4--4-5----L-------|
G||*--6--6-6--6-6----L-------|--6--6-6--6-6----L-------|
D||*-------------------------|-------------------------|
A||---4-------L-4----4----L--|--0-------L-0----0----L--|
E||--------------------------|-------------------------|


  S E  E  E  E  S E  E  E     E  S E  S Q    E  S S E     H        E  E  E  E   
---------------------------|---------------------------|-----------------------|
--5-4--5--4--7--7-5--4-----|--5--5-4--4-5-----------5--|--------------4--5--7--|
--4-4--4--4--4--4-4--4--4--|--6--6-6--6-6---------6----|--6--------------------|
------------------------6--|--------------------6------|-----------------------|
---------------------------|--4-------L-4----4------L--|--4--------4--------L--|
--2-------L--4----------L--|---------------------------|-----------------------|


  E.  E.  E  E  E  E  E     E.  E.  E  E  E  S E  S    E.  E.  E  E  E  E  E   
--4-------7--L--5--4--5--|----------2--L-------2--L-|--5---7---4--L--4--------|
------7------------------|--4---5---4--L-----4------|--4---4---4--L-----7--4--|
-------------------------|--4---4---------4---------|-------------------------|
-------------------------|--------------------------|-------------------------|
--0-------L--0--------L--|--------------------------|-------------------------|
-------------------------|--2-------L--2-------L----|--4-------L--4--------L--|


  H        E  E  E  E     E.  E.  E  E  E  S  S E     H        E.   E.   E   
-----------------------|--4---5------------4h-5-L--|--7--------9---11---12--|
--------------4--5--7--|----------7--L--7----------|--7---------------------|
--6--------------------|---------------------------|------------------------|
-----------------------|---------------------------|------------------------|
--4--------4--------L--|--0-------L--0----------L--|------------------------|
-----------------------|---------------------------|--7--------7---------L--|


   Q     Q     Q     Q        H        E   E   E   E   
--16----14----11----------|---------------11--12--14--|
--------------------12----|--14-----------------------|
--------------------------|---------------------------|
--------------------------|---------------------------|
--11-----L----11-----L----|---0--------0-----------L--|
--------------------------|---------------------------|


   H        E   E   E   E      E.   E.   E   E   E   E   E   
---------------11--12--14--|--16---16---16---L--16--16--16--|
--14-----------------------|--------------------------------|
---------------------------|--------------------------------|
---------------------------|--------------------------------|
---0--------0-----------L--|--11---------L--11-----------L--|
---------------------------|--------------------------------|


   E.   E.   E   E   E   E   S   S     H        E   E   E   E   
--16---16---16---L-----------------|--17-----------16--14--16--|
--------------------14--14--12h-14-|---------------------------|
-----------------------------------|---------------------------|
-----------------------------------|---------------------------|
--11---------L--11-----------L-----|---0--------0-----------L--|
-----------------------------------|---------------------------|


   Q     Q     Q     Q       E  E  Q    E  E  E  E     Q    Q    Q    Q     
--14----12----11----------|--9--L-------------------|----------------------|
--------------------12----|--------9----L--9--7--9--|--7-------------------|
--------------------------|-------------------------|-------9----8---------|
--------------------------|-------------------------|-----------------9----|
---9-----L-----9-----L----|-------------------------|----------------------|
--------------------------|--9-----L----9--------L--|--7----L----7----L----|


  H        E  E  E  E     E.  E.  E  E  E  S S E     E.  E.  E  E  E  S E  S  
-----------------------|--4---5-------------------|----------2--L-------2--L-|
--------------4--5--7--|----------7--L--4----4-L--|--4---5---4--L-----4------|
--6--------------------|-------------------6------|--4---4---------4---------|
-----------------------|--------------------------|--------------------------|
--4--------4--------L--|--0-------L--0---------L--|--------------------------|
-----------------------|--------------------------|--2-------L--2----------L-|


  Q    E  S S Q    E  E     H        E  E  E  E     Q    Q    E  E  E  E   
--5----L--4---4----------|-----------------------|---------------4--------|
--4----L----7------7--5--|--------------4--5--7--|--7----L----------5--4--|
-------------------------|--6--------------------|------------------------|
-------------------------|-----------------------|------------------------|
-------------------------|--4--------4--------L--|--0----L----0-----L-----|
--4---------L-4-------L--|-----------------------|------------------------|


  E  S Q    H        S    H        E  E  E  E     H        E  E  E  E   
-----------------------|-----------------------|-----------------------|
--4--5-----------------|-----------------------|--------------4--5--7--|
-------6----L----------|-----------L--4--4--4--|--6--------------------|
-----------------------|-----------------------|-----------------------|
-------4----L----------|-----------L-----------|--0--------0--------L--|
--4----L----L----------|-----------L-----------|-----------------------|


  E.  E.  E  E   E  E  E     E  S Q    H        S    
----------7--L------------|------------------------||
--9-------------10--9--7--|--4--5------------------||
------6-------------------|-------6----L----------*||
--------------------------|-----------------------*||
--------------------------|-------4----L-----------||
--7-------L--7---------L--|--4----L----L-----------||




Duration Legend
---------------
W - whole
H - half
Q - quarter
E - 8th
S - 16th
. - note dotted


Tablature Legend
----------------
L - tied note
h - hammer on

Login or Register to remove this ad.

1 comment on Guile's Theme

I've wanted a classical tab

5

I've wanted a fingerstyle tab of this for a long time, great job!