Guile's Theme (Street Fighter 2) Bass Tab

Submitted: Apr 03, 2011 by auriplane

5
Average: 5 (1 vote)
Download | Listen
Game: Street Fighter 2
Composer(s): Yoko Shimomura
Style: Transcription

This song is also called Rush of the Wind

AutoScroll: Slow | Medium | Fast
                    Street Fighter II - Guile BASS TAB
                        Composed by Yoko Shimomura
              
                 Tabbed by Auriplane ([email protected])



This is in Eb-standard tuning (tune all strings down a semitone), to
match the original and SNES versions.  It works out well, because the
lowest note is an Eb.  The CPS2 arcade version (from Hyper SF2) is a
semitone up, so if you're playing along with that, play in standard.

The notes are different from version to version, but this is based on
my favorite version (the SNES one).

        Part A

Gb |----------------|----------------|----------------|
Db |---------464----|----------67-7-7|----------------|
Ab |4-----------764-|----------------|--------------2-|
Eb |---------------7|5--------5------|02-2---2-4-4-4--|


Gb |--46-46---------|----------------|----------------|
Db |---------464----|--67-67---67-7-7|----------------|
Ab |4------4----764-|----------------|--------------24|
Eb |---------------7|5------5-5------|02-2---2-4-4-4--|

        Part B

Gb |----------------|---------------2|----------------|----------------|
Db |----------------|----------------|----------------|------------21-1|
Ab |24-4------4--4-4|----------------|-2-2------2--2-2|----------24--4-|
Eb |----------------|45-5------5-5-5-|5---------------|24--4----4------|


Gb |----------------|---------------2|----------------|------------1---|
Db |----------------|----------------|----------------|-------------41-|
Ab |24-4------4--4-4|----------------|-2-2------2--2-2|----------24---2|
Eb |----------------|45-5------5-5-5-|5---------------|24--4----4------|

        Part C

Gb |--------------12|--------------24|----------------|----------------|
Db |----------------|----------------|----------------|------------121-|
Ab |---0-0-00---0---|0--2-2-22---2---|24-4------4--4-4|24-4------24---2|
Eb |4---------------|----------------|----------------|---------4------|


Gb |--------------12|--------------24|----------------|----------------|
Db |----------------|----------------|----------------|------------121-|
Ab |---0-0-00---0---|0--2-2-22---2---|24-4------4--4-4|24-4-24---2----2|
Eb |4---------------|----------------|----------------|---------4-4----|

        Part D

Gb |----------------|----------------|----------------|----------------|
Db |---------------2|---4--4---4-2-24|-------------1-2|---2--2-2--2-2-1|
Ab |24-4------4--4--|----------------|02-2------2-----|----------------|
Eb |----------------|----------------|----------------|----------------|


Gb |--------------12|----------------|----------------|----------------|
Db |----------------|----------------|----------------|------------121-|
Ab |---0-0-00---0---|0--2-2-22-----2-|24-4------4--4-4|24-4--4---24---2|
Eb |4---------------|------------4--4|----------------|---------4------|


Gb |--------------1-|----------------|----------------|----------------|
Db |----------------|----------------|----------------|------------121-|
Ab |---0-0-00---0--0|---2-2-22-----2-|24-4------4--4-4|24-4-24---2----2|
Eb |4---------------|------------4--4|----------------|---------4-4----|

        Repeat back to Part A.

Login or Register to remove this ad.