Balrog (Street Fighter 2) Guitar Tab

Submitted: Jun 11, 2010 by soundsandstuff (Last updated: Jun 11, 2010)

4
Average: 4 (1 vote)
Download | Listen
Game: Street Fighter 2
Composer(s): Yoko Shimomura
Style: Alternate picking, Transcription

Click here for a video example.

AutoScroll: Slow | Medium | Fast
Street Fighter 2 - Balrog
Platform: Arcade, Super Nintendo Entertainment System/SNES, multiple platforms
Developer/Publisher: Capcom
Composed by: Yoko Shimomura
	     Isao Abe

Electric Guitar Tab Created By: soundsandstuff channel www.youtube.com/user/soundsandstuff
Completed on: 6/9/10

Standard Tuning

========================================================================================================== 
Part A
E|--------|-----------------------|--------|-15---13---12----------|--------|-15---13---15---17---|
B|--------|----------------13--15-|L15-----|----------------13--15-|L15-----|---------------------|
G|--------|-----------14----------|--------|-----------------------|--------|---------------------|
D|--------|------14---------------|--------|-----------------------|--------|---------------------|
A|--------|-----------------------|--------|-----------------------|--------|---------------------|
E|--------|-----------------------|--------|-----------------------|--------|---------------------|

Part B
E|-----------------------------------|----------------------------|------------------------|
B|-----------------------------------|----------------------------|------------------------|
G|-----------------------14--12------|-12-------------------------|----------------17--15--|
D|-12--14-15----12-14-15---------15--|-----15--14--12--14-12------|-14---15---17-----------|
A|-----------------------------------|-----------------------15---|------------------------|
E|-----------------------------------|----------------------------|------------------------|


E|--------------------------------------|-----------------------------------|----------------------------|
B|--------------------------------------|-----------------------------------|----------------------------|
G|L15--14------14-----------------------|-----------------------14--12------|-12-------------------------|
D|---------17-------17--15-17-15-14L14--|-12--14-15----12-14-15---------15--|-----15--14--12--14-12------|
A|--------------------------------------|-----------------------------------|-----------------------15---|
E|--------------------------------------|-----------------------------------|----------------------------|

								  Part C
E|------------------------|--------------------------------------|--------------------------|
B|-13---------------------|--------------------------------------|--------------------------|
G|------15---14-------15--|L15--14------14-----------------------|---------------12-----12--|
D|----------------17------|---------17-------17--15-17-15-14L14--|-15---14---15-------------|
A|------------------------|--------------------------------------|--------------------------|
E|------------------------|--------------------------------------|--------------------------|


E|--------------------------|-----------------------|--------|--------------------------|
B|--------------------------|-----------------------|--------|--------------------------|
G|--------------------------|-----------------------|--------|---------------12-----12--|
D|-15---14---12--14-----14--|-----------------------|--------|-15---14---15-------------|
A|--------------------------|-15--L-15--12--13--15--|L15-----|--------------------------|
E|--------------------------|-----------------------|--------|--------------------------|


E|--------------------------|-----------------------|------------------------------|
B|--------------------------|-----------------------|------------------------------|
G|--------------------------|-----------------------|-12--14--15--14---12----------|
D|-15---14---12--14-----14--|-14--L-14--12--14--15--|----------------------15--14--|
A|--------------------------|-----------------------|------------------------------|
E|--------------------------|-----------------------|------------------------------|

Part D
E|-----------------------------------|-------------------------------|---------------------------|
B|-----------------------------------|-------------------------------|---------------------------|
G|-14-14-12----------------12--------|-14--12----------------12------|---------------------------|
D|-------------15--12--15------------|-----------15--12--15----------|-15---14--15---14--12--14--|
A|--------------------------------13-|-------------------------------|---------------------------|
E|-----------------------------------|-------------------------------|---------------------------|


E|-----------------------------------|-----------------------------------|-------------------------------|
B|-----------------------------------|-----------------------------------|-------------------------------|
G|----------14-----------------------|-14-14-12----------------12--------|-14--12----------------12------|
D|L14-L-14-------17--15-17-15-14L14--|-------------15--12--15------------|-----------15--12--15----------|
A|-----------------------------------|--------------------------------13-|-------------------------------|
E|-----------------------------------|-----------------------------------|-------------------------------|


E|--------------------------|--------------------------------|----------------------------|
B|--------------------------|--------------------------------|----------------------------|
G|-12---14---15--14-----14--|L14--12--14--12------12L12------|----------------------------|
D|--------------------------|-----------------15---------15--|-14-15-14-12-----12--L-12---|
A|--------------------------|--------------------------------|----------------------------|
E|--------------------------|--------------------------------|----------------------------|


E|--------|
B|--------|
G|--------|
D|--------|
A|--------|
E|--------|
================================================================================= End/Repeat

Notes:
- Thank you for playing!
Login or Register to remove this ad.