Ads

Gate of Steiner ~Piano~ (Steins;Gate) Guitar Tab

Submitted: Oct 25, 2013 by scarecrowlol

4.9375
Average: 4.9 (16 votes)
Download | Listen
Game: Steins;Gate
Composer(s): Takeshi Abo, Kanako Itou, Jun Murakami
Style: Arrangement, Fingerstyle

AutoScroll: Slow | Medium | Fast
Title: Gate of Steiner ~Piano~
SubTitle: Steins;Gate
Artist: Takeshi Abo & Murakami Jun
Tabber: Mitch Jackson
Tempo = 150
T/S = 4/4
TUNING = Down 2 Steps


Apologies but this tab is quite challenging in some parts!

For those that dont wish to detune so low i recommend either Capo 1 or 3 in standard tuning which will 
also help with some of the tricky stretches


     FERM
     ^                                                         ^
     E  E  E  E  E  E  E  E       E  E  E  E  E  E  E  E       E  E  E  E  E  E  E  E       E  E  E  E  E  E  E  E     
C |--3-----------2-------------|--1-----------2-------------|--3-----------2-------------|--1-----------2-------------|
G |--3--------3-----------3----|-----------3-----------3----|--2--------2-----------2----|-----------2-----------2----|
D#|--4-----4-----------4-------|--------4-----------4-------|--4-----4-----------4-------|--------4-----------4-------|
A#|--4--4-----------4----------|-----4-----------4----------|--4--4-----------4----------|-----4-----------4----------|
F |----------------------------|----------------------------|----------------------------|----------------------------|
C |----------------------------|----------------------------|----------------------------|----------------------------|

     FERM                                                   
     ^                                                         ^                            ^    
     E  E  E  E  E  E  E  E       E  E  E  E  E  E  E  E       E  E  E  E  E  E  E  E       E  E  E  E  E  E  E  E     
  |--3-----------2-------------|--0-----------2-------------|--0-----------0-------------|--2-----------5--3--2-------|
  |--1-----0--1--------0--1----|--------0--1--------0--1----|--0--------0-----------0----|--4--------4-----------5----|
  |----------------------------|----------------------------|--2-----2-----------2-------|--2-----2-------------------|
  |--2--2-----------2----------|-----2-----------2----------|----------------------------|--4--4----------------------|
  |----------------------------|----------------------------|--4--4-----------4----------|----------------------------|
  |----------------------------|----------------------------|----------------------------|----------------------------|

                        

     E  E  E  E  E  E  E  E       E  E  E  E  E  E  E  E       E  E  E  E  E  E  E  E       E  E  E  E  E  E  E  E     
  |--3-----------2-------------|--------------2-------------|--3-----------2-------------|--------------2-------------|
  |--------2--3--------2--3----|--6-----2--3--------2--3----|-----------2-----------2----|--6--------2-----------2----|
  |----------------------------|----------------------------|--------4-----------4-------|--------4-----------4-------|
  |-----4-----------4----------|-----4-----------4----------|-----3-----------3----------|-----3-----------3----------|
  |--2-----------2-------------|--2-----------2-------------|--2-----------2-------------|--2-----------2-------------|
  |----------------------------|----------------------------|----------------------------|----------------------------|

                       150bpm --------------> 130bpm        150bpm --------> 130bpm        150bpm
                                                                                            FERM
     E  E  E  Q     E  E  E       H           H                E  E  E  E  H                H.                Q        
  |--0--------------0--5--7----|--12----------10------------|--7--------7L-L-------------|----------------------------|
  |-----------1----------------|--------------12------------|--------8-------------------|--1-------------------------|
  |--------4-------------------|--9-------------------------|-----9----------------------|--4-------------------------|
  |-----2----------------------|----------------------------|--7-------------------------|--2-------------------------|
  |--0-------------------------|----------------------------|----------------------------|--0-----------------7-------|
  |----------------------------|----------------------------|----------------------------|----------------------------|

   140bpm           

     Q.       H           E       Q.       Q     E  E  E       Q.       H           E       Q.       Q     E  E  E     
  |--5-------------------------|-----------------5-----5----|--7-------------------------|-----------------7-----7----|
  |-----------5L----------L----|--------------------5-------|-----------5L----------L----|--------------------5-------|
  |-----------5L----------L----|-----------5----------------|-----------7L----------L----|-----------7----------------|
  |-----------9L----------L----|-----------9----------------|-----------5L----------L----|-----------5----------------|
  |-----------7L----------L----|-----------7----------------|--7-------------------------|--7-------------------------|
  |--5-------------------------|--5-------------------------|----------------------------|----------------------------|

                                                          

     Q.       Q     E  E  E       Q.       Q     E  E  E       Q.       Q.       E  E       Q.       H           E     
  |--8--------------8--10-8----|--7-----------------3-------|-----------------------0----|----------------------------|
  |----------------------------|-----------3-----------5----|-----------1--------3-------|-----------3L----------L----|
  |-----------7----------------|-----------4-----4----------|-----------4----------------|-----------4L----------L----|
  |-----------7----------------|-----------3----------------|-----------2----------------|-----------6L----------L----|
  |--8-------------------------|----------------------------|--0-------------------------|----------------------------|
  |----------------------------|--3-------------------------|----------------------------|--0-------------------------|

                                                          
     ^
     Q.       H           E       Q.       Q     E  E  E       Q     E  Q     Q.            Q.       Q     E  E  E     
  |--5-------------------------|-----------------5-----5----|--7-----8--7----------------|--------------------7--8----|
  |--5--------5L----------L----|--------------------5-------|-----------------5----------|-----------------5----------|
  |-----------5L----------L----|-----------5----------------|-----------7----------------|-----------7----------------|
  |-----------9L----------L----|-----------9----------------|-----------5----------------|-----------5----------------|
  |-----------7L----------L----|-----------7----------------|--7-------------------------|--7-------------------------|
  |--5-------------------------|--5-------------------------|----------------------------|----------------------------|

                                                                                          140bpm ---------------------

     Q.       Q     E  E  E       Q.       Q     E  E  E       Q.       Q.       Q          E  Q     Q.       Q        
  |--10-------------12-8--7----|-----------3-----5--7--5----|-----------0--------3-------|--5-------------------------|
  |-----------8----------------|-----------5--------3-------|-----------1--------1-------|--5--------2--------3-------|
  |-----------5----------------|-----------4----------------|-----------4----------------|--6--------2--------0-------|
  |-----------7----------------|----------------------------|-----------2----------------|-----7-----2----------------|
  |--5-------------------------|----------------------------|--0-------------------------|-----------0----------------|
  |----------------------------|--3-------------------------|----------------------------|--------------------3-------|

   ---------------------------> 150bpm                                                        

     Q.       Q.       Q          Q.       Q.       E  E       Q.       Q     E  Q          Q.       Q     E  E  E     
  |--0-----------------3-------|--0-------------------------|--------------------3-------|----------------------------|
  |-----------3----------------|--1--------3--------0--1----|--3--------1-----0----------|--0--------1--------1-------|
  |--2--------2----------------|--0-------------------------|--0-------------------------|--0--------------4-----4----|
  |----------------------------|-----------0----------------|--2--------2----------------|--2--------2----------------|
  |-----------3--------3-------|----------------------------|----------------------------|--0-------------------------|
  |--1-------------------------|--3-------------------------|--0-------------------------|----------------------------|

                                                          

     Q.       Q.       Q          Q.       Q     E  E  E       Q.       Q.       Q          Q     E  Q     E  Q        
  |--0-----------------3-------|--5--------3-----8--7--0----|-----------3--------1-------|--0-------------------------|
  |-----------3----------------|-----------3----------------|-----------1----------------|--0--------3-----0----------|
  |--2--------2----------------|-----------3----------------|-----------4----------------|--0-----------------0-------|
  |----------------------------|----------------------------|-----------2----------------|-----------2----------------|
  |-----------3--------3-------|----------------------------|--0-------------------------|--------2-----------2-------|
  |--1-------------------------|--3-------------------------|----------------------------|--0-------------------------|

                                                          

     Q.       Q.       Q          Q.       Q.       E  E       Q.       Q     E  Q          Q.       Q     E  E  E     
  |--0-----------------3-------|--0-------------------------|--------------------3-------|----------------------------|
  |-----------3----------------|--1--------3--------0--1----|--3--------1-----0----------|--0--------1--------1-------|
  |--2--------2----------------|--0-------------------------|--0-------------------------|--0--------------4-----4----|
  |----------------------------|-----------0----------------|--2--------2----------------|--2--------2----------------|
  |-----------3----------------|----------------------------|----------------------------|--0-------------------------|
  |--1-------------------------|--3-------------------------|--0-------------------------|----------------------------|

                                                                        150bpm -------------------------> 110bpm
                                                               ^                                           FERM
     E  E  E  Q     Q     E       E  E  E  E  E  E  Q          Q.       Q.       Q          Q     Q.       Q.          
  |--------0--1-----3-----5L---|--L-----8-----5-----10------|--10-------0----------------|----------------------------|
  |--3--------3-----5-----6L---|--L--6-----6--5-------------|--10----------------0-------|--2-------------------------|
  |--------2-------------------|-----------------7----------|-----------7----------------|--0-----0--------2L---------|
  |-----3----------------------|----------------------------|-----------7--------7-------|--2-----2--------2L---------|
  |--1-------------------------|----------------------------|--0-------------------------|--0-------------------------|
  |----------------------------|----------------------------|----------------------------|----------------------------|

   150bpm
     FERM                                                  
     ^                                                         ^
     E  E  E  E  E  E  E  E       E  E  E  E  E  E  E  E       E  E  E  E  E  E  E  E       E  E  E  E  E  E  E  E     
  |--3-----------2-------------|--1-----------2-------------|--3-----------2-------------|--1-----------2-------------|
  |--3--------3-----------3----|-----------3-----------3----|--2--------2-----------2----|-----------2-----------2----|
  |--4-----4-----------4-------|--------4-----------4-------|--4-----4-----------4-------|--------4-----------4-------|
  |--4--4-----------4----------|-----4-----------4----------|--4--4-----------4----------|-----4-----------4----------|
  |----------------------------|----------------------------|----------------------------|----------------------------|
  |----------------------------|----------------------------|----------------------------|----------------------------|

     FERM                                                    
     ^                                                         ^                            ^ 
     E  E  E  E  E  E  E  E       E  E  E  E  E  E  E  E       E  E  E  E  E  E  E  E       E  E  E  E  E  E  E  E     
  |--3-----------2-------------|--0-----------2-------------|--0-----------0-------------|--2-----------5--3--2-------|
  |--1-----0--1--------0--1----|--------0--1--------0--1----|--0--------0-----------0----|--4--------4-----------5----|
  |----------------------------|----------------------------|--2-----2-----------2-------|--2-----2-------------------|
  |--2--2-----------2----------|-----2-----------2----------|----------------------------|--4--4----------------------|
  |----------------------------|----------------------------|--4--4-----------4----------|----------------------------|
  |----------------------------|----------------------------|----------------------------|----------------------------|

                          

     E  E  E  E  E  E  E  E       E  E  E  E  E  E  E  E       E  E  E  E  E  E  E  E       E  E  E  E  E  E  E  E     
  |--3-----------2-------------|--------------2-------------|--3-----------2-------------|--------------2-------------|
  |--------2--3--------2--3----|--6-----2--3--------2--3----|-----------2-----------2----|--6--------2-----------2----|
  |----------------------------|----------------------------|--------4-----------4-------|--------4-----------4-------|
  |-----4-----------4----------|-----4-----------4----------|-----3-----------3----------|-----3-----------3----------|
  |--2-----------2-------------|--2-----------2-------------|--2-----------2-------------|--2-----------2-------------|
  |----------------------------|----------------------------|----------------------------|----------------------------|

                                                          

     E  E  E  E  E  E  E  E       E  E  E  E  E  E  E  E       E  E  E  E  E  E  E  E       E  E  E  E  E  E  E  E     
  |--3-----------2-------------|--1-----------2-------------|--------2-------------------|--5--4-----2----------------|
  |-----------2-----------2----|-----------2-----------2----|-----5-----2--3-----2-------|--------2-----5-----2-------|
  |--------3-----------3-------|--------3-----------3-------|--4--------------4----------|-----------------4----------|
  |-----2-----------2----------|-----2-----------2----------|-----------------------4----|-----------------------6----|
  |--1-----------1-------------|--1-----------1-------------|--2-----------2-------------|----------------------------|
  |----------------------------|----------------------------|----------------------------|--2-----------2-------------|

 130bpm -> 150bpm                                          130bpm -> 150bpm                                                         
 
     E  E  E  E  E  E  E  E       E  E  E  E  E  E  E  E       E  E  E  E  E  E  E  E       E  E  E  E  E  E  E  E     
  |--------4-------------------|--7--6-----4----------------|--------6-------------------|--7--5--4--------4----------|
  |-----7-----4--5-----4-------|--------7-----4--7----------|-----9-----6--7-----6-------|-----------7--5--------7----|
  |--6--------------6----------|--------------------6--4----|--8--------------8-----6----|--------------------6-------|
  |-----------------------6----|----------------------------|----------------------------|--4-----------4-------------|
  |--4-----------4-------------|--4-----------4-------------|--6-----------6-------------|----------------------------|
  |----------------------------|----------------------------|----------------------------|----------------------------|

                                        150bpm -----------> 125bpm -----> 150bpm ----------------------------> 110bpm                

     E  E  E  E  E  E  E  E       E  E  E  E  E  E  E  E       E  E  E  E  E  E  E  E       E  E  E  E  E  E  Q        
  |--8-----5-------------------|--------5--------5-----8----|--7-------------------------|----------------------------|
  |-----7--------5--------7----|-----5--------5-------------|----------------------------|----------------------------|
  |-----------5--------5-------|--5--------5--------5-------|--------7-----------7--10---|--9--10-7--9-----7----------|
  |-----------------7----------|----------------------------|-----9-----9-----9----------|--------------10----9-------|
  |--0-----------0-------------|--0-----------0-------------|----------------------------|--------------------7-------|
  |----------------------------|----------------------------|--7-----------7-------------|----------------------------|

                                                             150bpm

     W                            W                            Q.       H           E       Q.       Q     E  E  E     
  |----------------------------|----------------------------|--5-------------------------|-----------------5-----5----|
  |----------------------------|----------------------------|-----------5L----------L----|--------------------5-------|
  |----------------------------|----------------------------|-----------5L----------L----|-----------5----------------|
  |--10L-----------------------|--L-------------------------|-----------9L----------L----|-----------9----------------|
  |----------------------------|----------------------------|-----------7L----------L----|-----------7----------------|
  |----------------------------|----------------------------|--5-------------------------|--5-------------------------|

                                                          

     Q.       H           E       Q.       Q     E  E  E       Q.       Q     E  E  E       Q.       Q     E  E  E     
  |--7-------------------------|-----------------7-----7----|--8--------------8--10-8----|--7-----------------3-------|
  |-----------5L----------L----|--------------------5-------|----------------------------|-----------3-----------5----|
  |-----------7L----------L----|-----------7----------------|-----------7----------------|-----------4-----4----------|
  |-----------5L----------L----|-----------5----------------|-----------7----------------|-----------3----------------|
  |--7-------------------------|--7-------------------------|--8-------------------------|----------------------------|
  |----------------------------|----------------------------|----------------------------|--3-------------------------|

                                                          
                                                               ^ 
     Q.       Q.       E  E       Q.       H           E       Q.       H           E       Q.       Q     E  E  E     
  |-----------------------0----|----------------------------|--5-------------------------|-----------------5-----5----|
  |-----------1--------3-------|-----------3L----------L----|--5--------5L----------L----|--------------------5-------|
  |-----------4----------------|-----------4L----------L----|-----------5L----------L----|-----------5----------------|
  |-----------2----------------|-----------6L----------L----|-----------9L----------L----|-----------9----------------|
  |--0-------------------------|----------------------------|-----------7L----------L----|-----------7----------------|
  |----------------------------|--0-------------------------|--5-------------------------|--5-------------------------|

                                                        

     Q     E  Q     Q.            Q.       Q     E  E  E       Q.       Q     E  E  E       Q.       Q     E  E  E     
  |--7-----8--7----------------|--------------------7--8----|--10-------------12-8--7----|-----------3-----5--7--5----|
  |-----------------5----------|-----------------5----------|-----------8----------------|-----------5--------3-------|
  |-----------7----------------|-----------7----------------|-----------5----------------|-----------4----------------|
  |-----------5----------------|-----------5----------------|-----------7----------------|----------------------------|
  |--7-------------------------|--7-------------------------|--5-------------------------|----------------------------|
  |----------------------------|----------------------------|----------------------------|--3-------------------------|
                                                    mp
                                                    
                                     150bpm -----> 110bpm    125bpm ---------------------> 145bpm                          
                                                    FERM       ^
     Q.       Q.       Q          E  Q     Q.       Q          Q.       Q.       Q          E  Q     Q.       E  E     
  |-----------0--------3-------|--5-------------------------|--12-------10-------15------|--12------------------------|
  |-----------1--------1-------|--5--------2--------3-------|--10------------------------|-----------15-------12-13---|
  |-----------4----------------|--6--------2--------0-------|--10------------------------|--12------------------------|
  |-----------2----------------|-----7-----2----------------|----------------------------|-----12---------------------|
  |--0-------------------------|-----------0----------------|----------------------------|----------------------------|
  |----------------------------|--------------------3-------|----------------------------|----------------------------|

                                                         
     ^                            ^                            ^
     E  Q     Q     E  E  E       E  Q     Q     E  E  E       Q.       Q.       Q          Q.       Q     E  E  E     
  |--10------------------------|--7--------8-----7--8--7----|--12-------10---------------|--5--------3-----8--7--0----|
  |--12-------13---------------|--8--------8----------------|--10----------------8-------|--3-------------------------|
  |--9--------------------12---|--9--7----------------------|--10------------------------|-----------3----------------|
  |-----9-----------9--10------|--7--------7----------------|----------------------------|----------------------------|
  |----------------------------|----------------------------|----------------------------|----------------------------|
  |----------------------------|----------------------------|----------------------------|----------------------------|
                                           mf
                                                  
                                            145bpm ---------------------> 152bpm
                                Crescendo  
     E  Q     Q     E  Q          E  Q     Q     E  Q          Q.       Q.       Q          Q.       Q.       E  E     
  |-----------3--------1-------|--0-------------------------|--0-----------------3-------|--0-------------------------|
  |-----------3-----1----------|-----------3-----0----------|-----------3----------------|--1--------3--------0--1----|
  |--2-----------------0-------|--2--------0--------0-------|--2--------2----------------|--0-------------------------|
  |-----2----------------------|--2--------0----------------|----------------------------|-----------0----------------|
  |----------------------------|----------------------------|-----------3----------------|----------------------------|
  |----------------------------|-----0----------------------|--1-------------------------|--3-------------------------|

                                                          

     Q.       Q     E  Q          Q.       Q     E  E  E       E  E  E  Q     Q     E       E  E  E  E  E  E  Q        
  |--------------------3-------|----------------------------|--------0--1-----3-----5L---|--L-----8-----5-----10------|
  |--3--------1-----0----------|--0--------1--------1-------|--3--------3-----5-----6L---|--L--6-----6--5-------------|
  |--0-------------------------|--0--------------4-----4----|--------2-------------------|-----------------7----------|
  |--2--------2----------------|--2--------2----------------|-----3----------------------|----------------------------|
  |----------------------------|--0-------------------------|--1-------------------------|----------------------------|
  |--0-------------------------|----------------------------|----------------------------|----------------------------|

                                                          
     ^                                                 FERM
     Q.       Q.       Q          E  E  E  Q     E  E  E       Q.       Q.       Q          Q.       Q.       E  E     
  |--10-------0----------------|-----------------------3----|--0-----------------3-------|--0-------------------------|
  |--10----------------0-------|--2-----2--3--------3-------|-----------3----------------|--1--------3--------0--1----|
  |-----------7----------------|--0--------------2----------|--2--------2----------------|--0-------------------------|
  |-----------7--------7-------|--2--2----------------------|----------------------------|-----------0----------------|
  |--0-------------------------|--0-------------------------|-----------3--------3-------|----------------------------|
  |----------------------------|----------------------------|--1-------------------------|--3-------------------------|

                                                          

     Q.       Q     E  Q          Q.       Q     E  E  E       Q.       Q.       Q          Q.       Q     E  E  E     
  |--------------------3-------|----------------------------|--0-----------------3-------|--5--------3-----8--7--0----|
  |--3--------1-----0----------|--0--------1--------1-------|-----------3----------------|-----------3----------------|
  |--0-------------------------|--0--------------4-----4----|--2--------2----------------|-----------3----------------|
  |--2--------2----------------|--2--------2----------------|----------------------------|----------------------------|
  |----------------------------|--0-------------------------|-----------3--------3-------|----------------------------|
  |--0-------------------------|----------------------------|--1-------------------------|--3-------------------------|

                                                          

     Q.       Q.       Q          Q     E  Q     E  Q          Q.       Q.       E          Q.       Q.       E  E     
  |-----------3--------1-------|--0-------------------------|--0-----------------3-------|--0-------------------------|
  |-----------1----------------|--0--------3-----0----------|-----------3----------------|--1--------3--------0--1----|
  |-----------4----------------|--0-----------------0-------|--2--------2----------------|--0-------------------------|
  |-----------2----------------|-----------2----------------|----------------------------|-----------0----------------|
  |--0-------------------------|--------2-----------2-------|-----------3----------------|----------------------------|
  |----------------------------|--0-------------------------|--1-------------------------|--3-------------------------|

                                                          

     Q.       Q     E  Q          Q.       Q     E  E  E       E  E  E  Q     Q     E       E  E  E  E  E  E  Q        
  |--------------------3-------|----------------------------|--------0--1-----3-----5L---|--L-----8-----5-----10------|
  |--3--------1-----0----------|--0--------1--------1-------|--3--------3-----5-----6L---|--L--6-----6--5-------------|
  |--0-------------------------|--0--------------4-----4----|--------2-------------------|-----------------7----------|
  |--2--------2----------------|--2--------2----------------|-----3----------------------|----------------------------|
  |----------------------------|--0-------------------------|--1-------------------------|----------------------------|
  |--0-------------------------|----------------------------|----------------------------|----------------------------|

                                                 152bpm ------------> 130bpm              90bpm          
     ^                            ^                            ^                            ^
     Q.       Q.       Q          E  E  E  Q     E  E  E       Q     E  H           E       W                          
  |--10-------0----------------|-----------------------3----|--5-----3-------------------|--9-------------------------|
  |--10----------------0-------|--2-----2--3--------3-------|--2--------2L----------L----|----------------------------|
  |-----------7----------------|--0--------------2----------|--2-------------------------|--6-------------------------|
  |-----------7--------7-------|--2--2----------------------|----------------------------|--7-------------------------|
  |--0-------------------------|--0-------------------------|----------------------------|--0-------------------------|
  |----------------------------|----------------------------|----------------------------|----------------------------|

                                                             150bpm
     mp                                                   mf   FERM
                                                               ^ 
     W                            W                            E  E  E  E  E  E  E  E       E  E  E  E  E  E  E  E     
  |--0L------------------------|--L-------------------------|--3-----------2-------------|--1-----------2-------------|
  |----------------------------|----------------------------|--3--------3-----------3----|-----------3-----------3----|
  |--2L------------------------|--L-------------------------|--4-----4-----------4-------|--------4-----------4-------|
  |--5L------------------------|--L-------------------------|--4--4-----------4----------|-----4-----------4----------|
  |--0L------------------------|--L-------------------------|----------------------------|----------------------------|
  |----------------------------|----------------------------|----------------------------|----------------------------|

                                                               FERM
     ^                                                         ^   
     E  E  E  E  E  E  E  E       E  E  E  E  E  E  E  E       E  E  E  E  E  E  E  E       E  E  E  E  E  E  E  E     
  |--3-----------2-------------|--1-----------2-------------|--3-----------2-------------|--0-----------2-------------|
  |--2--------2-----------2----|-----------2-----------2----|--1-----0--1--------0--1----|--------0--1--------0--1----|
  |--4-----4-----------4-------|--------4-----------4-------|----------------------------|----------------------------|
  |--4--4-----------4----------|-----4-----------4----------|--2--2-----------2----------|-----2-----------2----------|
  |----------------------------|----------------------------|----------------------------|----------------------------|
  |----------------------------|----------------------------|----------------------------|----------------------------|
                                                       
  
     ^                            ^     
     E  E  E  E  E  E  E  E       E  E  E  E  E  E  E  E       E  E  E  E  E  E  E  E       E  E  E  E  E  E  E  E     
  |--0-----------0-------------|--2-----------5--3--2-------|--3-----------2-------------|--------------2-------------|
  |--0--------0-----------0----|--4--------4-----------5----|--------2--3--------2--3----|--6-----2--3--------2--3----|
  |--2-----2-----------2-------|--2-----2-------------------|----------------------------|----------------------------|
  |----------------------------|--4--4----------------------|-----4-----------4----------|-----4-----------4----------|
  |--4--4-----------4----------|----------------------------|--2-----------2-------------|--2-----------2-------------|
  |----------------------------|----------------------------|----------------------------|----------------------------|

                                                                              150bpm -----------------> 125bpm

     E  E  E  E  E  E  E  E       E  E  E  E  E  E  E  E       E  E  E  Q     E  E  E       H           H              
  |--3-----------2-------------|--------------2-------------|--0--------------0--5--7----|--12----------10------------|
  |-----------2-----------2----|--6--------2-----------2----|-----------1----------------|--------------12------------|
  |--------4-----------4-------|--------4-----------4-------|--------4-------------------|--9-------------------------|
  |-----3-----------3----------|-----3-----------3----------|-----2----------------------|----------------------------|
  |--2-----------2-------------|--2-----------2-------------|--0-------------------------|----------------------------|
  |----------------------------|----------------------------|----------------------------|----------------------------|

  140bpm -------> 110bpm
     ^
     E  E  E  E  H                W                            W                           
  |--7--------7L-L-------------|----------------------------|----------------------------||
  |--8-----8-------------------|--1L------------------------|--L-------------------------||
  |--9--9----------------------|--4L------------------------|--L-------------------------||
  |--7-------------------------|--2L------------------------|--L-------------------------||
  |----------------------------|--0L------------------------|--L-------------------------||
  |----------------------------|----------------------------|----------------------------||

Login or Register to remove this ad.

2 comments on Gate of Steiner ~Piano~

this is really good

5

this is really good

Thanks! :3 (Personally i

Thanks! :3 (Personally i cringe at the difficulty of this tab ~___~)