Christina I (Steins;Gate) Guitar Tab

Submitted: Nov 26, 2014 by JordanVS

5
Average: 5 (4 votes)
Download | Listen
Game: Steins;Gate
Composer(s): Takeshi Abo, Kanako Itou, Jun Murakami
Style: 2 or more instruments, Arrangement, Fingerstyle, Natural harmonics

AutoScroll: Slow | Medium | Fast
Cristina I                                              
Steins;Gate
Takeshi Abo
JordanVS

-3/4
-Tempo : 88

*Capo on the 3rd fret

     E  E  Q.     E     Q    Q    Q       Q    H           Q    H           E  E  Q.     E   
E||--------0------3--|--2--------------|--0-------------|-------2--------|--------0------3--|
B||--1--3------------|------------3----|-------1--------|-------3--------|--1--3------------|
G||--------5---------|-------2---------|-------0--------|--2-------------|--------5---------|
D||------------------|-----------------|----------------|----------------|------------------|
A||--0---------------|--L--------------|--0-------------|----------------|--0---------------|
E||------------------|-----------------|----------------|----------------|------------------|


  Q    Q    Q       Q    H           E  E  E  E  E.  T  T     E  E  Q.     E     E  E  E  E  Q     
--5---------2----|--0-------------|------------------------|--------0------3--|--2----------------|
------------3----|-------1--------|------------------------|-----3------------|--------------3----|
-------2---------|-------0--------|-----2--0---------2s-4h-|--5-----5---------|-------------------|
-----------------|----------------|-----------4--0---------|------------------|--------0--2--4----|
--L--------------|--0-------------|--0---------------------|--0---------------|-----0-------------|
-----------------|----------------|------------------------|------------------|-------------------|


  Q    H           Q    H             E  E  Q.     E     E  E  E  E  E  E     Q    Q    Q     
--0-------------|-------2--------|----------0------3--|--5-----------3--2--|--0--------------|
-------1--------|-------3--------|--0g1--3------------|-----------3--------|------------0----|
-------0--------|----------------|----------5---------|-----2--0-----------|-------0---------|
----------------|----------------|--------------------|-----------4--0-----|-------2---------|
--0-------------|--0-------------|----0---------------|--------------------|--0--------------|
----------------|----------------|--------------------|--------------------|-----------------|


  E  E  E  E  E  E     Q    Q    E  E     Q    E  E  E  E     Q    Q    E  E     E  E  Q    Q     
--------------------|---------------0--|--0----------3--1--|--0---------L-----|------------------|
--1-----0-----3-----|--0---------L-----|----------3--------|-------1----L--0--|--0--1--0---------|
-----------2-----2--|-------0----------|-------2-----------|-------0----L-----|-------------0----|
-----0--------------|-------2----------|-------3-----------|-------2----L-----|--------2---------|
--------0--3--L-----|------------------|-------------------|------------------|--3--3------------|
--------------------|--1---------------|--1----------------|--0---------------|------------------|


                                                                       ^          
  E  E  H        E     E  E  E  E  E  E     E  E  E  E  E  E     E  E  Q    Q     
-----------------0--|--0--------0--3--5--|--0-----------L--8--|--7-----0----1----|
--0--L--3-----------|--------------------|-----------------8--|-----8------------|
--------2-----------|--------2-----------|-----------0--7--9--|--7-----0---------|
--------2-----------|--------3-----------|--------4-----------|-----9--0----2----|
--------------------|-----3--------------|-----2--------------|------------------|
--1-----------------|--1-----------------|--0-----------------|--0---------------|


  ^                                                                                             
  Q    Q    E  E     Q    Q    E  E     Q    Q    E  E     E  E  E  E  E  E     Q    Q.     E   
--3----1-------0--|--1---------L--5--|--5----3-------2--|--3-----------0--7--|--7----5---------|
--3------------1--|--3---------L-----|--5----3----------|--0-----------0-----|--6-----------5--|
--2----2----2-----|-------2----2-----|-------0----0-----|--------0-----0-----|--5----5------5--|
--0---------------|--0---------------|-------2----2-----|-----------4--------|--3--------------|
------------------|------------------|------------------|-----2--------------|-----------------|
------------------|------------------|--0---------------|--0-----------------|-----------------|


  ^                                                                                        
  Q    Q     Q       Q    E  E  Q       H.              E  E  Q.     E     Q    Q    Q     
--7----8----10----|--7---------------|---------------|------------------|-----------------|
--8---------------|--5---------------|---------------|------------------|-----------------|
--7----9----10----|--7---------------|--1------------|---------------0--|-----------------|
--7---------------|--7---------------|--0------------|-----0--2---------|--4---------0----|
------------------|-------7--7--7----|---------------|--3-----3---------|-------0---------|
------------------|------------------|--0------------|--5---------------|-----------------|


  Q    H           Q    Q    Q       E  E  Q.     E     Q    Q    Q       Q    H         
----------------|-----------------|------------------|-----------------|----------------|
----------------|-----------------|------------------|-----------------|----------------|
----------------|-----------------|---------------0--|--2--------------|----------------|
--2-------------|-------4---------|-----0--2---------|------------4----|--2-------------|
-------3--------|-------5----5----|--3-----3---------|------------5----|-------3--------|
--5-------------|--5--------------|--5---------------|-------5---------|--5-------------|


                      ^                                                        
  E  E  E  E  Q       E  E  Q.     E     E  E  E  E  Q       S  S E  H         
-----2--0----------|--------0------3--|--2----------------|-------------------|
-----------3-------|--1--3---------0--|--3-----------3----|--5p-3-5--L--------|
-----2--0-----2----|--0-----5---------|-------------------|----------0--------|
-----------4--0----|--2---------------|--------0--2--4----|----------2--------|
--0----------------|--0---------------|-----0-------------|--0----------------|
-------------------|------------------|-------------------|-------------------|


             |--3--|                                                               
  Q    E  E  E  E  E     E  E  Q.     E     Q    E  E  E  E     E  E  E  E  E  E   
----------------------|------------------|-------------------|--------------------|
----------------------|------------------|-------------------|--------------------|
-------2--------------|---------------0--|--2----------0-----|-----------0--------|
-------0--------------|-----0--2---------|--0-------0-----4--|--2--------------2--|
--0-------------0--2--|--3-----3------3--|-------0-----------|-----3--0-----3-----|
----------2--3--------|--5---------------|-------------------|--5--------3--------|


  E  E  E  E  E  E     E  E  E  E  E  E     E  E  E  E  E  E     E  E  E  E  E  E   
--------------------|--0--------0--------|--0--------0--------|--2--------2--------|
-----------0--1--3--|--1--1-----1--1-----|--1--1-----1--1-----|--3--3-----3--3-----|
-----0--2--0--2--4--|-----2--2-----2--2--|-----2--2-----2--2--|-----4--4-----4--4--|
--4--2--4-----------|--3-----3--------3--|--------3--------3--|--5-----5--------5--|
--5-----------------|--------------------|--------------------|--------------------|
--------------------|--------------------|--------------------|--------------------|


  E  E  E  E  E  E     E  E  E  E  E  E     E  E  E  E  E  E      E  E   E  E  E   E   
--2--------2--------|--5--------5--------|--5--------5--------|---7---------7---------|
--3--3-----3--3-----|--6--6-----6--6-----|--6--6-----6--6-----|---8--8------8--8------|
-----4--4-----4--4--|-----7--7-----7--7--|-----7--7-----7--7--|------9---9-----9---9--|
--------5--------5--|--8-----8--------8--|--------8--------8--|--10-----10--------10--|
--------------------|--------------------|--------------------|-----------------------|
--------------------|--------------------|--------------------|-----------------------|


                            ^                              
  E  E   E  E  E   E        H.              H.             
--7---------7--8--10--|--<>12------------|--L------------||
--8--8------8---------|--<>12------------|--L------------||
-----9---9-----9---7--|--<>12------------|--L------------||
--------10------------|------------------|---------------||
----------------------|------------------|---------------||
----------------------|--<>12------------|--L------------||


Hey!
There's a duet too!
:D

1#
     E  E  Q.     E     H        Q       H.              H.              E  E  Q.     E   
E||---------------6--|--5-------------|---------------|---------------|---------------6--|
B||-----6--8---------|-----------6----|--8------------|--L------------|-----6--8---------|
G||--8---------------|----------------|---------------|---------------|--8---------------|
D||------------------|----------------|---------------|---------------|------------------|
A||------------------|----------------|---------------|---------------|------------------|
E||------------------|----------------|---------------|---------------|------------------|


  H         Q       H.              E   E  E  E  E.  T  T     E  E  Q.     E     H        Q     
--8--------------|---------------|-------------------------|---------------6--|--5-------------|
-----------10----|--8------------|-------------------------|-----6--8---------|-----------6----|
-----------------|---------------|-------------------5s-7h-|--8---------------|----------------|
-----------------|---------------|-----10--8--7------------|------------------|----------------|
-----------------|---------------|---------------8---------|------------------|----------------|
-----------------|---------------|-------------------------|------------------|----------------|


  H.              H.                E  E  Q.     E     Q.     E  E  E     H        Q     
---------------|---------------|-----------------6--|--8---------6--5--|----------------|
--8------------|--L------------|-------6--8---------|---------6--------|--8-------------|
---------------|---------------|--7g8---------------|------------------|-----------7----|
---------------|---------------|--------------------|------------------|----------------|
---------------|---------------|--------------------|------------------|----------------|
---------------|---------------|--------------------|------------------|----------------|


  Q    E  E  E  E     H        E  E     Q.     E  E  E     H        E  E     E  E  Q    Q     
-------------------|-----------------|------------6-----|-----------------|------------------|
-------------6-----|--------------8--|--8------6-----9--|--8--------L-----|------------------|
--8----7--5-----5--|--7--------L-----|------------------|--------------7--|--7--8--7---------|
-------------------|-----------------|------------------|-----------------|-------------8----|
-------------------|-----------------|------------------|-----------------|------------------|
-------------------|-----------------|------------------|-----------------|------------------|


                                                                                ^               
  H        E  E     Q.     E  E  E     H        E   E      E   E  Q    Q        Q    Q.     E   
-----------------|------------6--8--|--------------11--|--10----------------|------------------|
--------------8--|--8------8--------|--8--------L------|------11--8----9----|--11----9------8--|
--7--------L-----|------------------|--------------12--|--10----------------|--10-----------8--|
-----------------|------------------|------------------|------12--8---------|--10--------------|
-----------------|------------------|------------------|--------------------|------------------|
-----------------|------------------|------------------|--------------------|------------------|


   H        E  E     Q     Q.      E     H        E   E      Q    Q.     E      Q     Q     Q     
---------------8--|--8----------------|--6-----------10--|--10----8---------|--10----11----13----|
---9--------------|--8----11------10--|-----------8------|---9-----------8--|--------------------|
--10--------L-----|-------10----------|--7--------7------|---8----8------8--|--10----12----13----|
------------------|-------------------|------------------|------------------|--------------------|
------------------|-------------------|------------------|------------------|--------------------|
------------------|-------------------|------------------|------------------|--------------------|


   H.              H.              E  E  Q.     E     H        Q       H.            
--10------------|---------------|------------------|----------------|---------------|
---8------------|---------------|------------------|----------------|---------------|
--10------------|---------------|--------0------3--|--2-------------|--0------------|
----------------|---------------|--1--3------------|-----------3----|---------------|
----------------|--2------------|------------------|----------------|---------------|
----------------|--1------------|------------------|----------------|---------------|


  H.              E  E  Q.     E     H        Q       H.              E  E  E  E  Q     
---------------|------------------|----------------|---------------|-------------------|
---------------|------------------|--1-------------|---------------|-------------------|
--L------------|--------0------3--|-----------2----|--0------------|-----2--0----------|
---------------|--1--3------------|----------------|---------------|-----------3-------|
---------------|------------------|----------------|---------------|-----3--1--0--3----|
---------------|------------------|----------------|---------------|--------------1----|


  ^                                                                                               
                                                                     |--3--|                      
  E  E  Q.     E     H        Q       S  S E  H           Q    E  E  E  E  E     E  E  Q.     E   
------------------|----------------|-------------------|----------------------|------------------|
------------------|----------------|-------------------|----------------------|------------------|
--------0------3--|--2-------------|-------------------|----------------------|--------0------3--|
--1--3---------0--|--3--------3----|--5p-3-5--L--------|-------------------0--|--1--3---------1--|
--3---------------|----------------|-------------------|----------0--1--3-----|------------------|
--3---------------|----------------|-------------------|----------------------|------------------|


  Q.     E  E  E     E  E  E  E  E  E     E  E  E  E  E  E     E  E  E  E  E  E   
------------------|--------------------|--------------------|--3--------3--------|
------------------|--------------------|-----------3--4--6--|--4--4-----4--4-----|
--5---------3--2--|--0--------3-----0--|--2--3--5--3--5--7--|-----5--5-----5--5--|
--3------3--------|-----1--------1-----|--3--5--7-----------|--------6--------6--|
------------------|--------3--1--------|--3-----------------|--------------------|
------------------|--------------------|--------------------|--------------------|


  E  E  E  E  E  E     E  E  E  E  E  E     E  E  E  E  E  E     E   E   E  E   E   E   
--3--------3--------|--5--------5--------|--5--------5--------|--8----------8----------|
--4--4-----4--4-----|--6--6-----6--6-----|--6--6-----6--6-----|--9---9------9---9------|
-----5--5-----5--5--|-----7--7-----7--7--|-----7--7-----7--7--|-----10--10-----10--10--|
--------6--------6--|--------8--------8--|--------8--------8--|---------11---------11--|
--------------------|--------------------|--------------------|------------------------|
--------------------|--------------------|--------------------|------------------------|


                                                                                  ^             
  E   E   E  E   E   E      E   E   E   E   E   E      E   E   E   E   E   E      H.            
--8----------8----------|--10----------10----------|--10----------10--11--13--|--15------------|
--9---9------9---9------|--11--11------11--11------|--11--11------11----------|--15------------|
-----10--10-----10--10--|------12--12------12--12--|------12--12------12--10--|--15------------|
---------11---------11--|----------13----------13--|----------13--------------|----------------|
------------------------|--------------------------|--------------------------|----------------|
------------------------|--------------------------|--------------------------|----------------|


  H.             
--L------------||
--L------------||
--L------------||
---------------||
---------------||
---------------||

#2

-Drop C Tuning(C - G - C - F - A - d)

     Q     H           Q    Q    Q       Q     H           Q    H           Q     H         
D||--------8--------|------------7----|--------8--------|-------7--------|--------8--------|
A||-------10--------|-----------------|-------10--------|-------8--------|-------10--------|
F||-------10--------|-------7---------|-------10--------|--7-------------|-------10--------|
C||--0--------------|-----------------|--0--------------|----------------|--0--------------|
G||-----------------|-----------------|-----------------|----------------|-----------------|
C||-----------------|-----------------|-----------------|----------------|-----------------|


                                         NH                                                   
  Q    Q    Q       Q     H              H.              Q     H           E  E  E   E  Q     
-------7---------|--------8--------|------------------|--------8--------|---------------7----|
------------8----|-------10--------|------------------|-------10--------|--------8--10-------|
-----------------|-------10--------|------------------|-------10--------|-----7--------------|
-----------------|--0--------------|--<>12------------|--0--------------|--------------------|
-----------------|-----------------|------------------|-----------------|--------------------|
-----------------|-----------------|------------------|-----------------|--------------------|


  Q     H           Q    H           Q     H           E  E  E  E  Q       Q     H         
--------8--------|-------7--------|--------8--------|-------------------|--------8--------|
-------10--------|-------8--------|-------10--------|-------------------|-------10--------|
-------10--------|----------------|-------10--------|-----7--5--4-------|-------10--------|
--0--------------|--0-------------|--0--------------|--------------5----|--0--------------|
-----------------|----------------|-----------------|-------------------|-----------------|
-----------------|----------------|-----------------|-------------------|-----------------|


  E  E  E  E  Q       Q    H           Q    Q    Q       Q    Q    Q       E  E  E  E  Q     
-------------------|----------------|-------3----1----|-------1----3----|-----------0-------|
-------------------|-------3--------|-------3---------|-------1---------|--------------1----|
-------------------|-------5--------|-------3---------|-------2---------|--------2----------|
-----------3--L----|-------7--------|-----------------|-----------------|-----3-------------|
--------5----------|----------------|--1--------------|--0--------------|-------------------|
-----5-------------|--8-------------|-----------------|-----------------|--3----------------|


                                                               ^                            
  Q    H           E  E  H           E  E  E  E  E  E     Q    Q    Q       Q    Q    Q     
-------3--------|--------5--------|-----------------8--|-------3---------|-----------------|
-------3--------|--------3--------|--------0-----8-----|-------5---------|-------6----6----|
-------2--------|--------3--------|-----------5--------|-------5----2----|-------3----3----|
----------------|-----3-----------|-----2--------------|-----------------|-------5----5----|
--1-------------|--1--------------|--0-----------------|--0--------------|-----------------|
----------------|-----------------|--------------------|-----------------|--5--------------|


                                                                             ^                
  E  E  Q    Q       Q    Q    Q       E  E  E  E  Q       Q    Q    Q       Q.     E  E  E   
------------------|-------3----3----|--------5-----5----|-------5----3----|--8------6--5--3--|
--------6----6----|-------1----1----|-----------0-------|-------3---------|--6---------------|
--------3----3----|-------2----2----|--------5-----5----|-------3---------|--7---------------|
-----0--5----5----|-----------------|-----2-------------|-------3---------|------------------|
------------------|--0--------------|--0----------------|--1--------------|------------------|
--5---------------|-----------------|-------------------|-----------------|------------------|


  Q    E  E  Q       H.              Q    H           E  E  H           Q    H         
--0---------------|---------------|----------------|-----------------|----------------|
--3---------------|---------------|-------1--------|--------0--------|-------1--------|
--2---------------|---------------|-------2--------|-----2-----------|-------2--------|
------------------|---------------|-------3--------|--0--------------|-------3--------|
-------0--0--0----|--0------------|----------------|-----------------|----------------|
------------------|---------------|--0-------------|-----------------|--0-------------|


                                                             ^                         
  Q    Q    Q       Q    H           E  E  Q    Q       Q    H           H.            
-----------------|----------------|------------------|----------------|---------------|
-------0---------|-------1--------|--------0---------|-------1--------|---------------|
-------0---------|-------2--------|-----2-------0----|-------2--------|---------------|
--0--------------|-------3--------|--0---------------|-------3--------|--0------------|
-----------------|----------------|------------------|----------------|---------------|
------------5----|--0-------------|------------------|--0-------------|---------------|


                                                             ^                          
  Q    H           E  E  E  E  Q       Q    H           Q    H           Q    H         
----------------|-------------------|--5-------------|----------------|----------------|
-------1--------|--------------0----|-------1--------|-------3--------|-------1--------|
-------2--------|--------0--2-------|-------2--------|-------4--------|-------2--------|
-------3--------|-----0-------------|-------3--------|-------5--------|-------3--------|
----------------|-------------------|----------------|--5-------------|----------------|
--0-------------|-------------------|--0-------------|----------------|--0-------------|


  E  E  E  E  Q       H.              Q    Q    Q       Q    H           H.            
--------------3----|---------------|-----------------|-------1--------|--L------------|
-----------3-------|---------------|-------3----3----|-------3--------|--L------------|
--------4----------|---------------|-------4----4----|--3----5--------|--L------------|
-----5-------------|---------------|-------5----5----|----------------|---------------|
-------------------|---------------|-----------------|----------------|---------------|
-------------------|--0------------|--5--------------|----------------|---------------|


                                                         ^                                
  Q    H           E  E  E  E  E  E     Q    H           H        Q       Q    Q    Q     
-------0--------|--L-----------0--3--|-------3--------|--5--------3----|-------5----3----|
-------0--------|--L--0--1--3--------|-------3--------|--3-------------|-------5---------|
-------5--------|--L-----------------|-------3--------|--3-------------|-------5---------|
----------------|--------------------|----------------|----------------|-----------------|
--3-------------|--------------------|--6-------------|----------------|-----------------|
----------------|--------------------|----------------|----------------|--3--------------|


  Q    Q    Q       H.              H.             
--5----8---------|---------------|---------------||
--5---------8----|--5------------|--L------------||
--5--------------|--5------------|--L------------||
-----------------|--7------------|--L------------||
-----------------|---------------|---------------||
-----------------|---------------|---------------||


Duration Legend
---------------
W - whole
H - half
Q - quarter
E - 8th
S - 16th
T - 32nd
X - 64th
. - note dotted
|-n-|  - n-tuplets


Tablature Legend
----------------
L - tied note
g - grace note
> - accentuded note
NH - natural harmonic
AH - artificial harmonic
h - hammer on
p - pull off
S - shift slide
s - legato slide
/ -  slide into from below or out of upwards
\ -  slide into from above or out of downwards
^ - brush up
v - brush down
Login or Register to remove this ad.