Messenger (Steins;Gate 0) Guitar Tab

Submitted: Jan 04, 2019 by kruasan (Last updated: Jan 11, 2019)

5
Average: 5 (1 vote)
Download | No audio :(
Game: Steins;Gate 0
Composer(s): Takeshi Abo, Nobuaki Nobusawa, Moe Hyuga
Style: Arrangement, Fingerstyle
Series: Steins;Gate

Click here for a video example.

AutoScroll: Slow | Medium | Fast
Messenger 

(Steins:Gate 0 main theme)
Composed by: Takeshi Abo
Arranged by: kruasan

Some parts were rearranged, so it's not the same as the original version.

Standard tuning
bpm ~ 185

E|---------------------|---------------------|---------------------|---------------------|
B|---------------------|---------------------|---------------------|---------------------|
G|----------------4----|-2----0---------0----|-7---------4----2----|----------------4----|
D|-----------2----4----|-----------4---------|-7---------4----0----|-2---------2----4----|
A|------2--------------|---------------------|----------------2----|-2----2--------------|
E|-0-------------------|---------------------|-0-------------------|-0-------------------|


E|---------------------|---------------------|---------------------|---------------------|
B|---------------------|---------------------|---------------------|-0-------------------|
G|-2----0---------0----|---------------------|---------------------|------5----4----2----|
D|-----------4---------|-2----0----2---------|-4--------------2----|---------------------|
A|---------------------|-3-------------------|-2---------0---------|---------------------|
E|---------------------|---------------------|---------------------|---------------------|


E|---------------------|---------------------|---------------------|---------------------|
B|---------------------|---------------------|---------------------|---------------------|
G|-0----2----4---------|------12---11---9----|-8--------------9----|-11---4----2----4----|
D|---------------------|---------------------|---------------------|-9---------4---------|
A|---------------------|---------------------|-9-------------------|---------------------|
E|-----------3---------|---------------------|-7-------------------|---------------------|


E|-------------|---------------------|---------------------|---------------------|
B|-------------|---------------------|---------------------|---------------------|
G|-0-----------|----------------4----|-2----0---------0----|-7---------4----2----|
D|-------4-----|-----------2----4----|-----------4---------|-7---------4----0----|
A|-------------|------2--------------|---------------------|----------------2----|
E|-------------|-0-------------------|---------------------|-0-------------------|


E|---------------------|---------------------|---------------------|---------------------|
B|---------------------|---------------------|---------------------|---------------------|
G|----------------4----|-2----0---------0----|-----------4---------|-2-------------------|
D|-2---------2----4----|-----------4---------|-2----0----2---------|-0--------------2----|
A|-2----2--------------|---------------------|-3-------------------|-----------0---------|
E|-0-------------------|---------------------|---------------------|---------------------|


E|---------------------|---------------------|---------------------|---------------------|
B|-0-------------------|---------------------|---------------------|---------------------|
G|------5----4----2----|-0----2----4---------|------12---11---9----|-8--------------9----|
D|---------------------|---------------------|---------------------|---------------------|
A|---------------------|---------------------|---------------------|-9-------------------|
E|---------------------|-----------3---------|---------------------|-7-------------------|


E|---------------------|-------------|---------------------|---------------------|
B|---------------------|-------------|---------------------|-----------3----1----|
G|-11---4----2---------|-0-----------|----------------0----|-2-------------------|
D|-9-------------------|-------4-----|------2----4---------|------2--------------|
A|-----------2---------|-------2-----|-3-------------------|---------------------|
E|---------------------|-------------|---------------------|---------------------|


E|---------------------|-------------|---------------------|---------------------|
B|-0--------------0----|-------------|---------------------|-----------3----1----|
G|-----------0---------|-2-----2-----|----------------0----|-2-------------------|
D|------2--------------|-0-----0-----|------2----4---------|------2--------------|
A|-3-------------------|-3-----3-----|-5-------------------|---------------------|
E|---------------------|-------------|---------------------|---------------------|


E|---------------------|-------------|---------------------|---------------------|
B|-0-------------------|-------------|---------------------|---------------------|
G|----------------2----|-2-----2-----|------4----2----0----|------2----4---------|
D|-0----2----4---------|-4-----4-----|---------------------|-4---------2----4----|
A|---------------------|-3-----3-----|---------------------|-----------2---------|
E|---------------------|-------------|-0-------------------|---------------------|


E|---------------------|---------------------|---------------------|---------------------|
B|------0--------------|-----------0---------|-3-------------------|----------------3----|
G|------0----2----0----|------2--------------|-----------2---------|------0----2---------|
D|-----------4----2----|-4-------------------|------0---------2----|-4-------------------|
A|---------------------|-5-------------------|---------------------|---------------------|
E|-0-------------------|---------------------|-3-------------------|---------------------|


E|----------------2----|-5----3----2---------|---------------------|---------------------|
B|-0-------------------|---------------------|---------------------|-----------3----1----|
G|-4---------2----2----|---------------------|----------------0----|-2-------------------|
D|------4--------------|------0--------------|------2----4---------|------2--------------|
A|-2-------------------|----------------2----|-3-------------------|-----------3---------|
E|----------------2----|---------------------|---------------------|---------------------|


E|---------------------|-----------10---8----|-7-------------------|---------------------|
B|-0--------------8----|-10------------------|-0-------------------|-----------3----1----|
G|------9----11--------|------9--------------|-9---------9----0----|-2-------------------|
D|------10-------------|---------------------|-10---10-------------|------2--------------|
A|---------------------|---------------------|---------------------|---------------------|
E|---------------------|---------------------|---------------------|---------------------|


E|---------------------------|---------------------|---------------------|-----------1---------|
B|-0-------------------------|----------------0----|-1-------------------|----------------4----|
G|---------------------------|-----------2---------|------3----2----3----|-2----0----3---------|
D|------4---5---4-------0----|-2----0--------------|-1-------------------|---------------------|
A|------5--------------------|---------------------|----------------3----|---------------------|
E|---------------------------|---------------------|---------------------|---------------------|


E|---------------------|---------------------|-1----------------------------|---------1-----------------|
B|-2----4----2----1----|------1----2----4----|-1----------------------------|-1---4---------------------|
G|------0--------------|-3-------------------|-3--------------------1---3---|---------------------------|
D|---------------------|---------------------|-1------------1---3-----------|---------------------------|
A|---------------------|---------------------|-1----1---3-------------------|---------------------------|
E|---------------------|---------------------|------------------------------|---------------------------|


E|-3----------------------------|---------3--------------------|-------------|-----------------|
B|-3----------------------------|-3---6------------------------|-4-----------|-----------1-----|
G|-5--------------------3---5---|------------------------------|-------------|-----------0-----|
D|-3------------3---5-----------|------------------------------|-4-----------|-----------1-----|
A|-3----3---5-------------------|------------------------------|-3-----------|-----------------|
E|------------------------------|------------------------------|-------------|-----------------|


E|-----------|-----------|-----------|-----------|-----------|-----------|-----------|
B|-0---------|-----------|-----------|-----------|-0---------|-----------|-3---------|
G|-0---------|-2---------|-0---------|-----------|-0---------|-2---------|-2---------|
D|-----------|-4---------|-2---------|-4---------|-----------|-4---------|-----------|
A|------2----|------2----|------2----|------2----|------2----|------2----|------2----|
E|-----------|-----------|-----------|-----------|-----------|-----------|-----------|


E|-----------|-----------|-----------|-----------|-----------|-----------|-----------|
B|-0---------|-----------|-----------|-----------|-0---------|-----------|-3---------|
G|-0---------|-2---------|-0---------|-----------|-0---------|-2---------|-2---------|
D|-----------|-4---------|-2---------|-4---------|-----------|-4---------|-----------|
A|-----------|-----------|-----------|-----------|-----------|-----------|-----------|
E|------3----|------3----|------3----|------3----|------3----|------3----|------3----|


E|-----------|-----------|-----------|-----------|-----------|-----------|-----------|
B|-0---------|-----------|-----------|-----------|-0---------|-----------|-3---------|
G|-0---------|-2---------|-0---------|-----------|-0---------|-2---------|-2---------|
D|-----------|-4---------|-2---------|-4---------|-----------|-4---------|-----------|
A|------0----|------0----|------0----|------0----|------0----|------0----|------0----|
E|-----------|-----------|-----------|-----------|-----------|-----------|-----------|


E|-----------|-----------|-----------|-----------|-----------|-----------|-----------|
B|-0---------|-----------|-----------|-----------|-0---------|-----------|-3---------|
G|-0---------|-2---------|-0---------|-----------|-0---------|-2---------|-2---------|
D|-----------|-4---------|-2---------|-4---------|-----------|-4---------|-----------|
A|------2----|------2----|------2----|------2----|------2----|------2----|------2----|
E|-----------|-----------|-----------|-----------|-----------|-----------|-----------|


E|-----------|-----------|-----------|-----------|-----------|-----------|-------------|
B|-0---------|-----------|-----------|-----------|-0---------|-----------|-3-----------|
G|-0---------|-2---------|-0---------|-----------|-----------|-2---------|-------------|
D|-----------|-4---------|-2---------|-4---------|-0---------|-4---------|-4-----------|
A|------2----|------2----|------2----|------2----|-2---------|-5---------|-0-----------|
E|-----------|-----------|-----------|-----------|-----------|-----------|-------------|


E|-0-------------------|-----------0---------|-2----2------|-2----3---------5----|
B|-0-------------------|------0--------------|-------------|---------------------|
G|-0-------------------|-0-------------------|-2----2------|---------------------|
D|---------------------|---------------------|-------------|---------------------|
A|-3--------------3----|---------------------|-------------|---------------------|
E|---------------------|---------------------|-------------|---------------------|


E|-5--------------3---2---|-3-------------------------|---------------------|---------------------|
B|------------------------|----------------------3----|-0-------------------|---------------------|
G|-0----------------------|---------------------------|-0--------------0----|---------------------|
D|------------------------|---------------------------|-2-------------------|-4----0---------0----|
A|------------------------|---------------------------|---------------------|-----------0---------|
E|------------------------|---------------------------|---------------------|---------------------|


E|---------------------|------------------------|---------------------|-----------2-----|
B|---------------------|----------------0-------|-0-------------------|-----------------|
G|---------------------|------------------------|------2----0---------|-0----2----0-----|
D|-2-------------------|-----------2------------|-0--------------4----|-----------------|
A|-2--------------2----|-3----------------------|---------------------|-----------------|
E|-3-------------------|------------------------|---------------------|-----------3-----|


E|-------------0---2---3---2-------|------------------------------|---------------------|
B|-----0---3-------------------3---|------------------------------|---------------------|
G|-2-------------------------------|-2---0------------------------|---------------------|
D|---------------------------------|---------4---0----------------|---------------------|
A|---------------------------------|-----------------2------------|-0-------------------|
E|---------------------------------|------------------------------|---------------------|


E|---------------------|-----------10---8----|-7-------------------|---------------------|
B|----------------8----|-10------------------|-0-------------------|---------------------|
G|------9----11--------|------9--------------|-9---------9---------|-12--------12--------|
D|-10------------------|---------------------|-10---10--------10---|-12--------12--------|
A|---------------------|---------------------|---------------------|---------------------|
E|---------------------|---------------------|---------------------|---------------------|


E|---------------------|-----------10---8----|-7-------------------|---------------------|
B|----------------8----|-10------------------|-0-------------------|---------------------|
G|------9----11--------|------9--------------|-9---------9---------|---------------------|
D|---------------------|---------------------|---------------------|-12--------12--------|
A|---------------------|---------------------|---------------------|-12--------12--------|
E|-10------------------|---------------------|-10---10--------10---|---------------------|


E|------7----5----3----|-2----5----7---------|---------------------|---------------------|
B|------8----7----5----|-3----7----8---------|------0--------------|-----------0---------|
G|---------------------|----------------9----|------0----2----0----|------2--------------|
D|---------------------|----------------9----|-----------4----2----|-4-------------------|
A|---------------------|---------------------|---------------------|-5-------------------|
E|-0-------------------|---------------------|-0-------------------|---------------------|


E|---------------------|---------------------|----------------2----|-5----3----2---------|
B|-3-------------------|----------------3----|-0-------------------|---------------------|
G|-----------2---------|------0----2---------|-4---------2----2----|---------------------|
D|------0---------2----|-4-------------------|------4--------------|------0--------------|
A|---------------------|---------------------|-2-------------------|----------------2----|
E|-3-------------------|---------------------|----------------2----|---------------------|


E|---------------------|---------------------|---------------------|-------------|
B|---------------------|-----------3----1----|-0--------------0----|-------------|
G|----------------0----|-2-------------------|-----------0---------|-2-----2-----|
D|------2----4---------|------2--------------|------2--------------|-0-----0-----|
A|-3-------------------|---------------------|-3-------------------|-3-----3-----|
E|---------------------|---------------------|---------------------|-------------|


E|---------------------|---------------------|---------------------------|---------------------|
B|---------------------|-----------3----1----|-0-------------------------|----------------0----|
G|----------------0----|-2-------------------|---------------------------|-----------2---------|
D|------2----4---------|------2--------------|------4---5---4-------0----|-2----0--------------|
A|-5-------------------|---------------------|------5--------------------|---------------------|
E|---------------------|---------------------|---------------------------|---------------------|


E|---------------------|-----------1---------|---------------------|---------------------|
B|-1-------------------|----------------4----|-2----4----2----1----|------1----2----4----|
G|------3----2----3----|-2----0----3---------|------0--------------|-3-------------------|
D|-1-------------------|---------------------|---------------------|---------------------|
A|----------------3----|---------------------|---------------------|---------------------|
E|---------------------|---------------------|---------------------|---------------------|


E|-1----------------------------|-----------------1---------------|-3----------------------------|
B|-1----------------------------|-1---4---------------------------|-3----------------------------|
G|-3--------------------1---3---|---------------------------------|-5--------------------3---5---|
D|-1------------1---3-----------|---------------------------------|-3------------3---5-----------|
A|-1----1---3-------------------|---------------------------------|-3----3---5-------------------|
E|------------------------------|---------------------------------|------------------------------|


E|---------3-------------|-------------|-------------|-----------|-----------|-----------|
B|-3---6-----------------|-4-----------|-------1-----|-0---------|-----------|-----------|
G|-----------------------|-------------|-------0-----|-0---------|-2---------|-0---------|
D|-----------------------|-4-----------|-------1-----|-----------|-4---------|-2---------|
A|-----------------------|-3-----------|-------------|------2----|------2----|------2----|
E|-----------------------|-------------|-------------|-----------|-----------|-----------|


E|-----------|-----------|-----------|-----------|-----------|-----------|-----------|
B|-----------|-0---------|-----------|-3---------|-0---------|-----------|-----------|
G|-----------|-0---------|-2---------|-2---------|-0---------|-2---------|-0---------|
D|-4---------|-----------|-4---------|-----------|-----------|-4---------|-2---------|
A|------2----|------2----|------2----|------2----|------2----|------2----|------2----|
E|-----------|-----------|-----------|-----------|-----------|-----------|-----------|


E|-----------|-----------|-----------|-----------|-----------|-----------|-----------|
B|-----------|-0---------|-----------|-3---------|-0---------|-----------|-----------|
G|-----------|-0---------|-2---------|-2---------|-0---------|-2---------|-0---------|
D|-4---------|-----------|-4---------|-----------|-----------|-4---------|-2---------|
A|------2----|------2----|------2----|------2----|------2----|------2----|------2----|
E|-----------|-----------|-----------|-----------|-----------|-----------|-----------|


E|-----------|-----------|-----------|-----------|-----------|-----------|-----------|
B|-----------|-0---------|-----------|-3---------|-0---------|-----------|-----------|
G|-----------|-0---------|-2---------|-2---------|-0---------|-2---------|-0---------|
D|-4---------|-----------|-4---------|-----------|-----------|-4---------|-2---------|
A|------2----|------2----|------2----|------2----|------2----|------2----|------2----|
E|-----------|-----------|-----------|-----------|-----------|-----------|-----------|


E|-----------|-----------|-----------|-------------|---------------------|---------------------|
B|-----------|-0---------|-----------|-3-----------|---------------------|---------------------|
G|-----------|-----------|-2---------|-------------|----------------4----|-2----0---------0----|
D|-4---------|-0---------|-4---------|-4-----------|-----------2----4----|-----------4---------|
A|------2----|-2---------|-5---------|-0-----------|------2--------------|---------------------|
E|-----------|-----------|-----------|-------------|-0-------------------|---------------------|


E|---------------------|---------------------|---------------------|---------------------|
B|---------------------|---------------------|---------------------|---------------------|
G|-7---------4---------|----------------4----|-2----0---------0----|---------------------|
D|-7---------4---------|-2---------2----4----|-----------4---------|-2----0----2---------|
A|---------------------|-2----2--------------|---------------------|-3-------------------|
E|-0-------------------|-0-------------------|---------------------|---------------------|


E|---------------------|---------------------|---------------------|---------------------|
B|---------------------|-0-------------------|---------------------|---------------------|
G|---------------------|------5----4----2----|-0----2----4---------|------12---11---9----|
D|-4--------------2----|---------------------|---------------------|---------------------|
A|-2---------0---------|---------------------|---------------------|---------------------|
E|---------------------|---------------------|-----------3---------|---------------------|


E|---------------------|---------------------|-------------|---------------------|
B|---------------------|---------------------|-------------|---------------------|
G|-8--------------9----|-11---4----2---------|-0-----------|----------------4----|
D|---------------------|-9---------4---------|-------4-----|-----------2----4----|
A|-9-------------------|---------------------|-------------|------2--------------|
E|-7-------------------|---------------------|-------------|-0-------------------|


E|---------------------|---------------------|---------------------|---------------------|
B|---------------------|---------------------|---------------------|---------------------|
G|-2----0---------0----|-7---------4---------|----------------4----|-2----0---------0----|
D|-----------4---------|-7---------4---------|-2---------2----4----|-----------4---------|
A|---------------------|---------------------|-2----2--------------|---------------------|
E|---------------------|-0-------------------|-0-------------------|---------------------|


E|---------------------|---------------------|---------------------|---------------------|
B|---------------------|---------------------|-0-------------------|---------------------|
G|-----------4---------|-2-------------------|------5----4----2----|-0----2----4---------|
D|-2----0----2---------|-0--------------2----|---------------------|---------------------|
A|-3-------------------|-----------0---------|---------------------|---------------------|
E|---------------------|---------------------|---------------------|-----------3---------|


E|---------------------|---------------------|---------------------|-------------|
B|---------------------|---------------------|---------------------|-------------|
G|------12---11---9----|-8--------------9----|-11---4----2---------|-0-----------|
D|---------------------|---------------------|-9-------------------|-------4-----|
A|---------------------|-9-------------------|-----------2---------|-------2-----|
E|---------------------|-7-------------------|---------------------|-------------|


E|-------------|
B|-------------|
G|-------------|
D|-2-----------|
A|-2-----------|
E|-0-----------|



Login or Register to remove this ad.