Ads

Spaceship (StarTropics) Guitar Tab

Submitted: Feb 10, 2010 by musenji

5
Average: 5 (2 votes)
Download | Listen
Game: StarTropics
Composer(s): Y. Hirai
Style: Arrangement, Fingerstyle

Click here for a video example.

AutoScroll: Slow | Medium | Fast
Startropics
Inside the Spaceship
composed by Y. Hirai
tabbed by musenji, 2006

Might feel a little odd at first, but it's certainly possible.  Bar
the first fret during the second measure--except beat 4.  Stopping
the bar there will make transitioning easier.

(repeat the first line once; don't repeat the second)

 *       *       *       *        *       *       *       *
|--------------------------------|--------3---------------------|
|--4-3-1-3-----1-----------------|--4-3-1---1---4---1-----------|
|2---------2-------2-------------|2-----------------------------|
|--------------------------------|------------------------------|
|0-----------------------0-------|------------------------------|
|----------------------------3---|1-----------------------1---3-|


 *       *       *       *        *       *       *       *
|0-----------3-------------------|------------------------------|
|--------3-------1---------0-----|------------0-1-3---0---------|
|----------------------------2-0-|2-----------------------2---0-|
|--------------------------------|------------------------------|
|3-------2-------0---------------|------------------------------|
|------------------------3-------|1---------------3-------------|

Watch the video, and happy cube hunting!
Login or Register to remove this ad.

1 comment on Spaceship

I like this =)

I like this =)