Ads

Overworld (StarTropics) Guitar Tab

Submitted: May 25, 2011 by auriplane

0
Download | Listen
Game: StarTropics
Composer(s): Y. Hirai
Style: Alternate picking, Transcription

AutoScroll: Slow | Medium | Fast
                   Startropics - Overworld GUITAR TAB
                          Composed by Y. Hirai

                 Tabbed by Auriplane ([email protected])



        Part A

e |15----10--------------------10--|------10----12------------------|
B |------------12--------1213------|13------------------------------|
G |--------------------------------|--------------------------------|
D |--------------------------------|--------------------------------|
A |--------------------------------|--------------------------------|
E |--------------------------------|--------------------------------|


e |14----10------------------------|------------10--------1012109-10|    
B |------------10--------1012--13--|12----13------------------------|    
G |--------------------------------|--------------------------------|    
D |--------------------------------|--------------------------------|    
A |--------------------------------|--------------------------------|    
E |--------------------------------|--------------------------------|    


e |15----10--------------------10--|------10----12------------------|
B |------------12--------1213------|13------------------------------|
G |--------------------------------|--------------------------------|
D |--------------------------------|--------------------------------|
A |--------------------------------|--------------------------------|
E |--------------------------------|--------------------------------|


e |14----10------------------------|--------------------------------|
B |------------10--------1012--13--|12----10----8-------------------|
G |--------------------------------|--------------------------------|
D |--------------------------------|--------------------------------|
A |--------------------------------|--------------------------------|
E |--------------------------------|--------------------------------|

        Part B

e |8---------------10--8-7---------|7---8-10----7---------7---0-----|
B |--------------------------10----|----------------8---10----------|
G |--------------------------------|--------------------------------|
D |--------------------------------|--------------------------------|
A |--------------------------------|--------------------------------|
E |--------------------------------|--------------------------------|


e |8---------------10--8---7-------|7-------------------------------|
B |----------------------------10--|--------------------------------|
G |--------------------------------|--------------------------------|
D |--------------------------------|--------------------------------|
A |--------------------------------|--------------------------------|
E |--------------------------------|--------------------------------|


e |8---------------10--8-7---------|7---8-10----7---------7---0-----|
B |--------------------------10----|----------------8---10----------|
G |--------------------------------|--------------------------------|
D |--------------------------------|--------------------------------|
A |--------------------------------|--------------------------------|
E |--------------------------------|--------------------------------|


e |----------------------------14--|15--------------17--------------|
B |13--------------15------17------|--------------------------------|
G |--------------------------------|--------------------------------|
D |--------------------------------|--------------------------------|
A |--------------------------------|--------------------------------|
E |--------------------------------|--------------------------------|



Login or Register to remove this ad.