Ads

A Stillness in the Rain (Abigail's melody) (Stardew Valley) Guitar Tab

Submitted: Mar 16, 2016 by Ljas

5
Average: 5 (3 votes)
Download | Listen
Game: Stardew Valley
Composer(s): Eric Barone
Style: 2 or more instruments, Fingerstyle, Transcription

AutoScroll: Slow | Medium | Fast
A Stillness in the Rain (Abigail's Melody)
Stardew Valley
Composed by Eric Barone
Tabbed by Ljas
2016.03.15


BPM = 100

The melody is in C Minor.
The second instrument plays in Phrygian Dominant, I think?

     Q.      E  Q        Q    Q    Q        Q.     E   Q     
E||--8------10--8----|------------------|-------------------|
B||------------------|--11----8---------|----------8--------|
G||------------------|-------------8----|--10---------10----|
D||------------------|------------------|-------------------|
A||------------------|------------------|-------------------|
E||------------------|------------------|-------------------|


  H.               Q.     E  E   E     Q    Q    Q     
---------------|--------------------|-----------------|
---------------|--------------------|--8---------8----|
--7------------|----------7--8--10--|-------8---------|
---------------|--10----------------|-----------------|
---------------|--------------------|-----------------|
---------------|--------------------|-----------------|


  E  E   Q    Q       H.               Q.     E  E   E   
-------------------|---------------|--------------------|
--9--8-------------|---------------|--------------------|
--------10----8----|--7------------|----------7--8--10--|
-------------------|---------------|--10----------------|
-------------------|---------------|--------------------|
-------------------|---------------|--------------------|


  Q    Q    Q       Q.     E  Q       H        E.  T T  
-----------------|---------8-------|-------------------|
--8---------8----|--9---------9----|--8--------L---6-8-|
-------8---------|-----------------|-------------------|
-----------------|-----------------|-------------------|
-----------------|-----------------|-------------------|
-----------------|-----------------|-------------------|


  Q.     E  Q       Q    Q    Q       Q    Q    Q     
-----------------|-----------------|-----------------|
--6------9--6----|--8--------------|-----------------|
-----------------|-------8----5----|--7----8----7----|
-----------------|-----------------|-----------------|
-----------------|-----------------|-----------------|
-----------------|-----------------|-----------------|


  E    H     E     Q    H                                 
----------------|----------------||
----------------|----------------||
--L----5-----L--|--L-------------||
----------------|----------------||
----------------|----------------||
----------------|----------------||



This plays in the background when the above repeats:

     Q    Q    Q       Q    Q    Q       Q    Q    Q     
E||-----------------|-----------------|-----------------|
B||-------4----4----|-------4----4----|-------4----6----|
G||-------5----5----|-------5----5----|-------5----5----|
D||-----------------|-----------------|-----------------|
A||--3--------------|-----------------|-----------------|
E||-----------------|--6--------------|--4--------------|


  Q    E  E  E  E     E  E  Q    E  E     Q    Q    Q     
-------------3-----|-------------------|--3---------3----|
--3-------3--------|-----3--4----4--6--|-------4---------|
--4----4--------4--|--5----------------|-----------------|
-------------------|--------5----------|-------5---------|
-------------------|--3----------------|-----------------|
--3----------------|-------------------|--6--------------|


                     ^                                
  E  E  Q    Q       H        Q       Q    Q    Q     
--4---------------|--3-------------|-----------------|
-----8--6----6----|--3-------------|-------4----4----|
--------5----5----|--4-------------|-------5----5----|
------------------|--5-------------|-----------------|
------------------|--5-------------|--3--------------|
--4---------------|--3--------3----|-----------------|


  Q    Q    Q       Q    Q    Q       Q    E  E  E  E   
-----------------|-----------------|-------------3-----|
-------4----4----|-------4----4----|----------3--------|
-------5----5----|-------5----5----|-------4--------4--|
-----------------|-----------------|-------------------|
-----------------|-----------------|--5----------------|
--6--------------|--4--------------|--3----------------|


                                                ^     
  Q    Q    Q       Q    Q    Q       Q    Q    Q     
-----------------|-----------------|------------7----|
-------6----6----|-------4----4----|--3----4----8----|
-------5----5----|-------5----5----|------------7----|
--3--------------|-----------------|-----------------|
-----------------|--6--------------|-----------------|
-----------------|-----------------|--3---------7----|


        ^                                                  
  E     H     E     Q    H                                 
--------8-----L--|--L-------------||
--------8-----L--|--L-------------||
--------8-----L--|--L-------------||
-------10-----L--|--L-------------||
-------10-----L--|--L-------------||
--L-----8-----L--|--L-------------||



Duration Legend
---------------
W - whole
H - half
Q - quarter
E - 8th
S - 16th
T - 32nd
X - 64th
. - note dotted
|-n-|  - n-tuplets


Tablature Legend
----------------
L - tied note
h - hammer on
p - pull off


Login or Register to remove this ad.