Ads

Opening Theme (Stardew Valley) Guitar Tab

Submitted: Jan 10, 2020 by dustbug (Last updated: Jan 11, 2020)

0
Download | No audio :(
Game: Stardew Valley
Composer(s): Eric Barone
Style: Fingerstyle

AutoScroll: Slow | Medium | Fast
P. 1

   Q  Q  Q.    Q.       Q  Q  Q.    Q.       Q  Q  Q.    Q.       H. 
|--------------------|--------------------|--------------------|--------|
|--------------0(0)--|--------------0(0)--|--------------0(0)--|--4-----|
|--------------------|--------1(1)--------|--------------------|--4--L--|
|-----1--4(4)--------|-----2--------------|-----1--4(4)--------|--4-----|
|--2-----------------|--2-----------------|--2-----------------|--------|
|--------------------|--------------------|--------------------|--------| 

   Q  Q  Q.    Q.       Q  Q  Q.    Q.       Q  Q  Q.    Q.       H. 
|--------------------|--------------------|--------------------|--------|
|--------------0(0)--|--------------0(0)--|--------------0(0)--|--------|
|--------------------|--------1(1)--------|--------------------|--------|
|-----1--4(4)--------|-----2--------------|-----1--4(4)--------|--------|
|--2-----------------|--2-----------------|--2-----------------|--2-----|
|--------------------|--------------------|--------------------|--------| 
(then repeat first three bars & third bar again as many times as needed)


P 2:
   H  Q    Q  Q  Q     H  Q  H.    H  Q  Q  Q Q    W-H
|-----1/2--0-----0--|--2--------|-----2--0--4p2--|-----|
|--4----------4-----|-----4\-0--|--4-------------|--2--|
|-------------------|-----------|----------------|-----|
|-------------------|-----------|----------------|-----|
|-------------------|-----------|----------------|-----|
|-------------------|-----------|----------------|-----|

   H  Q    Q  Q  Q     H  Q  H  E     Q  Q  Q  H  Q   W-H
|-----1/2--0-----0--|--2-----------|----------------|-----|
|--4----------4-----|-----4\-0--2--|--4--2--0-------|-----|
|-------------------|--------------|-----------1----|--4--|
|-------------------|--------------|--------------4-|-----|
|-------------------|--------------|----------------|-----|
|-------------------|--------------|----------------|-----|


Login or Register to remove this ad.