Ads

Space Armada (Star Fox) Guitar Tab

Submitted: Apr 27, 2010 by soundsandstuff (Last updated: Apr 14, 2014)

0
Download | Listen
Game: Star Fox
Composer(s): Hajime Hirasawa
Style: Transcription
Series: Star Fox

Click here for a video example.

AutoScroll: Slow | Medium | Fast

Star Fox - Space Armada
Platform: Super Nintendo Entertainment System/SNES
Developer/Publisher: Nintendo
Composed by: Hajime Hirasawa

Electric Guitar Tab Created By: soundsandstuff channel www.youtube.com/user/soundsandstuff
Completed on: 4/24/10

Part A
====================================================================================================================
E|-------------------------------------|------------------------------------------|
B|-8-L-8--7--8--7----------------------|-8-L-8--7--8--7-------------10---10-10-10-|
G|------------------7---9----------9---|------------------7---9-------------------|
D|----------------------------7--------|------------------------------------------|
A|-------------------------------------|------------------------------------------|
E|-------------------------------------|------------------------------------------|


E|-------------------------------------|------------------------------------------|
B|-8-L-8--7--8--7----------------------|-8-L-8--7--8--7-------------10---10-10-10-|
G|------------------7---9----------9---|------------------7---9-------------------|
D|----------------------------7--------|------------------------------------------|
A|-------------------------------------|------------------------------------------|
E|-------------------------------------|------------------------------------------|


E|-------------------------------------------|----------------------------------------------------------|
B|-11-L11-10-8------8---9-L-9--8-------------|-8-----8-L-8-----8--8--8--9-L-9-----9--9--11-----11-11-11-|
G|--------------10----------------10-8---10--|----------------------------------------------------------|
D|-------------------------------------------|----------------------------------------------------------|
A|-------------------------------------------|----------------------------------------------------------|
E|-------------------------------------------|----------------------------------------------------------|

Part B
==================================================================================================================================================
E|--------------------------------------------------------------|--------------------------------------------------------------|
B|-13-----------------------------------------------------13----|-14-----------------------------------------------------14----|
G|--------------------------------------------------------------|--------------------------------------------------------------|
D|--------10-------10-10-10-10-------10-10-10----10-10-10-------|--------10-------10-10-10-10-------10-10-10----10-10-10-------|
A|--------------------------------------------------------------|--------------------------------------------------------------|
E|--------------------------------------------------------------|--------------------------------------------------------------|


E|---------------------------------------------------------------------|---------------------------------------------------------------------|
B|-15--------------------------------11--------------------------------|-10---------------------------------------------------------------7--|
G|---------------------------------------------------------------------|---------------------------------------------------------------7-----|
D|--------10-------10-10-10-10-----------------------------------------|--------7--------7--7--7--7--------7------7--------7--7--7--7--------|
A|------------------------------------------10-------10-10-10-10-------|---------------------------------------------------------------------|
E|---------------------------------------------------------------------|---------------------------------------------------------------------|

==================================================================================================================================================== Repeat

Notes:
- Thank you for playing!

Login or Register to remove this ad.