Ads

Map Screen (Star Fox) Guitar Tab

Submitted: Jul 02, 2009 by Stamen47 (Last updated: Apr 14, 2014)

5
Average: 5 (6 votes)
Download | Listen
Game: Star Fox
Composer(s): Hajime Hirasawa
Style: Arrangement, Fingerstyle
Series: Star Fox

AutoScroll: Slow | Medium | Fast
                          Star Fox - Map Screen                                    

Music by Hajime Hirasawa
Tab by Stamen47

     A                          B7/A                       
     E  E  E  E  E  E  E  E     E  E  E  E  E  E  E  E   
E||-----------0--0-----------|-----------0--2-----------|
B||-----------------2-----2--|--0-----4--------0--2--4--|
G||--2-----------------2-----|--------------------------|
D||--------2--------------2--|-----4--------------------|
A||-----0--------------------|--0-----------------------|
E||--------------------------|--------------------------|


  G#m7                         C#m7                        
  E  E  E  S  S E  E  E  E     E  E  E  E  E  E  E  E   
----------------------------|--------0-----2-----4-----|
--7--------5p-4-5-----------|-----------0-----0--------|
-----4----------------------|--------1-----------------|
--------4-------------4-----|--2--------------------2--|
-------------------6-----6--|-----4--------------------|
--4-------------------------|--------------------------|


  D             D/C#          Bm7                       
  E  E  E  S  S E  E  Q       E  E  E  S  S E  E  Q     
--5-------------------5----|--5-------------------5----|
-----------3p-2-3----------|-----------3p-2-3----------|
--------2------------------|--------2------------------|
-----0----------------4----|----------------------4----|
-------------------4-------|-----2-------------0-------|
---------------------------|---------------------------|


  G                          E                             A           
  E  E  E  E  E  E  E  E     E  E  E  E  E  S S E  E       H          
--7-----------------------|--0-------------------------||-----------||
--------0-----------0-----|-----------0----------------||-----------||
-----0-----0-----0-----0--|--2-----2-----1------------*||--2--------||
--------------0-----------|-----2---------------------*||-----------||
--------------------------|-----------------2-2-2--2---||--0--------||
--------------3-----------|--------------0-------------||-----------||




Duration Legend
---------------
W - whole
H - half
Q - quarter
E - 8th
S - 16th


Tablature Legend
----------------
p - pull off
Login or Register to remove this ad.

6 comments on Map Screen

Wow, I forgot what a

5

Wow, I forgot what a beautiful song this is.

Very nice, thanks.

5

Very nice, thanks.

Awesome :D

5

Didn't notice this until I made my own tab. This one's nicer :)

sweet.

5

sweet.

greattt

5

this is so a fucking great and beautifull!! thanks!!! a LOT

Still sweet. Also, the

5

Still sweet. Also, the feels.