Ads

Course Map Select (Star Fox) Guitar Tab

Submitted: Apr 27, 2010 by soundsandstuff (Last updated: Apr 14, 2014)

0
Download | Listen
Game: Star Fox
Composer(s): Hajime Hirasawa
Style: Transcription
Series: Star Fox

Click here for a video example.

AutoScroll: Slow | Medium | Fast

Star Fox - Course Select
Platform: Super Nintendo Entertainment System/SNES
Developer/Publisher: Nintendo
Composed by: Hajime Hirasawa

Electric Guitar Tab Created By: soundsandstuff channel www.youtube.com/user/soundsandstuff
Completed on: 4/25/10

Part A
=================================================================================================================
E|-------------|---------------------------------|----------------------|------------------------|
B|-------------|-----------------7---------------|-7--L-7---------------|--------------7----9----|
G|-------9-----|-8-------8---9-----------6---8---|----------9--8--9---L-|-9-------9--------------|
D|-7-----------|---------------------9-----------|----------------------|------------------------|
A|-------------|---------------------------------|----------------------|------------------------|
E|-------------|---------------------------------|----------------------|------------------------|

                                                                               Part B 
E|--------------------------|--------------------------|-7------|-------------|-------------|
B|-10-L-10-------------10---|-10-L-10-------------10---|--------|-------------|-------------|
G|----------7--6--7---------|----------7--6--7---------|--------|-9-----------|-------9-----|
D|--------------------------|--------------------------|--------|-------------|-7-----------|
A|--------------------------|--------------------------|--------|-------7-----|-------------|
E|--------------------------|--------------------------|--------|-------------|-------------|


E|---------------------------------|----------------------|------------------------|
B|-----------------7---------------|-7--L-7---------------|--------------7----9----|
G|-8-------8---9-----------6---8---|----------9--8--9---L-|-9-------9--------------|
D|---------------------9-----------|----------------------|------------------------|
A|---------------------------------|----------------------|------------------------|
E|---------------------------------|----------------------|------------------------|


E|--------------------------|--------------------------|-------------------------------------------------|
B|-10-L-10-------------10---|-10-L-10-------------10---|-------------------------------------------------|
G|----------7--6--7---------|----------7--6--7---------|-------------------------------------------------|
D|--------------------------|--------------------------|-9---7-----------------------------------7---9---|
A|--------------------------|--------------------------|---------7-----------------------7---9-----------|
E|--------------------------|--------------------------|-------------7---7---5---5---7-------------------|

                                           Part C 
E|---------------------7---12-------------|-------------|---------------------------------|
B|---------7---7---10---------------------|-------------|-----------------7---------------|
G|-7---9----------------------------------|-------9-----|-8-------8---9-----------6---8---|
D|----------------------------------------|-7-----------|---------------------9-----------|
A|----------------------------------------|-------------|---------------------------------|
E|----------------------------------------|-------------|---------------------------------|


E|----------------------|---------------------|--------------------------|--------------------------|
B|-7--L--7--L-7-L-7--9--|-----------7----9----|-10-L-10-------------10---|-10-L-10--9--7--9----10-s-|
G|----------------------|-9----9--------------|----------7--6--7---------|--------------------------|
D|----------------------|---------------------|--------------------------|--------------------------|
A|----------------------|---------------------|--------------------------|--------------------------|
E|----------------------|---------------------|--------------------------|--------------------------|


E|-------------------------------------12--14------|-14s16-L-16b17-16-14----|-12-----|
B|-12----------9---10------10--12--14----------12--|------------------------|--------|
G|-----9---11----------11--------------------------|------------------------|--------|
D|-------------------------------------------------|------------------------|--------|
A|-------------------------------------------------|------------------------|--------|
E|-------------------------------------------------|------------------------|--------|

=========================================================================================================== End

Notes:
- I added slight variations to some areas in Part C
- Thank you for playing!

Login or Register to remove this ad.