Ads

ThornTail Hollow (Day) (Star Fox Adventures) Guitar Tab

Submitted: Dec 11, 2013 by (Last updated: Apr 14, 2014)

0
Download | Listen
Game: Star Fox Adventures
Composer(s): David Wise
Style: Alternate picking, Transcription
Series: Star Fox

AutoScroll: Slow | Medium | Fast
Star Fox Adventures (gamecube)
ThornTail Hollow (Day)
Composed by David Wise
Tabbed by CrazyRedd

e---------------------
B--4----4-------------
G----3----3------5-3--
D---------------------
A---------------------
E---------------------x2

e----------------------------------
B-3-4----3-4------4-3--------------
G-----3-----3---------3-1----------
D----------------------------------
A----------------------------------
E----------------------------------

e-------------
B-3-4----3-4--
G-----3-----3-
D-------------
A-------------
E-------------

e----------
B-8-6-3-1--
G----------
D----------
A----------
E----------
Login or Register to remove this ad.

1 comment on ThornTail Hollow (Day)

Too short

Haven't played this game (or heard the music) in such a long time. Thanks for bringing the memories back :)
However, there's more to this song than just what's in the tab here - did it get cut off or did you not tab it?