Rock Bottom (SpongeBob SquarePants: Lights, Camera, Pants!) Guitar Tab

Submitted: May 13, 2015 by samisito (Last updated: Nov 18, 2015)

0
Download | Listen
Game: SpongeBob SquarePants: Lights, Camera, Pants!
Composer(s): Charlie Brissette, Hamilton Altstatt
Style: 2 or more instruments, Alternate picking, Pinch harmonics, Transcription

AutoScroll: Slow | Medium | Fast
Rock Bottom (SpongeBob & Sandy)


Tunning: Standar E Tunning (EADGBe)

 ----- Symbols -----

	/	Slide Up
	\	Slide Down
	~	Vibrato
	=	Staccato
	p	Pull-Off
	h	Hammer-Up
	()	Silent Note
	<>	Second octave pinch harmonic
	b	Bend
	r	Release Bend
	x	Palm-mutted note


	
Song 1 (0:00 - 0:40)

SpongeBob
e|----3-------5---------6---------7----
B|-------------------------------------
G|--4-------5-------5/6-------6/7------
D|-------------------------------------
A|-------------------------------------
E|-------------------------------------

Sandy
e|----3-------5---------6---------7----
B|----3-------5---------6---------7----
G|----4-------5---------6---------7----
D|-------------------------------------
A|-------------------------------------
E|-------------------------------------

Sandy plays the chords in a kind of country style

    C         C         C         C      F       F       F         F
e|------8--------10--------12---------|----1-------3---------5---------
B|------------------------------------|--------------------------------
G|--8h9-------10--------12------------|--2-------3-------3/5-----------
D|------------------------------------|--------------------------------
A|------------------------------------|--------------------------------
E|------------------------------------|--------------------------------

    C       C         C         C        F         F         F         F
e|----8--------10--------12-----------|-----13--------15--------17---------
B|------------------------------------|------------------------------------
G|--9-------10--------12--------------|--14--------15--------17------------
D|------------------------------------|------------------------------------
A|------------------------------------|------------------------------------
E|------------------------------------|------------------------------------

SpongeBob
e|----3---5---6---7--
B|-------------------
G|--4---5---6---7----
D|-------------------
A|-------------------
E|-------------------

Sandy
e|----3---5---6---7--
B|----3---5---6---7--
G|----4---5---6---7--
D|-------------------
A|-------------------
E|-------------------

    C         C         C            C      F       F       F         F
e|------8--------10-----------12---------|----1-------3---------5---------
B|---------------------------------------|--------------------------------
G|--8h9-------10--------10/12------------|--2-------3-------3/5-----------
D|---------------------------------------|--------------------------------
A|---------------------------------------|--------------------------------
E|---------------------------------------|--------------------------------

    G       G       G       G            C         C              C
e|----3-------5-------7--------10-----|----8----10----12----10-|----8\---
B|------------------------------------|------------------------|---------
G|--4-------5-------7-------10--------|--9---10----12----10----|--9------
D|------------------------------------|------------------------|---------
A|------------------------------------|------------------------|---------
E|------------------------------------|------------------------|---------



Song 2 (0:40 - 1:17)

SpongeBob
e|------|-11b12-10~-------|-9b10-8~---------|-11b12-10~-------|-10b11r10-11-10-----
B|------|--------------11-|---------------8-|-----------------|----------------11--
G|------|-----------------|-----------------|-----------------|--------------------
D|------|-----------------|-----------------|-----------------|--------------------
A|--14\-|-----------------|-----------------|-----------------|--------------------
E|------|-----------------|-----------------|-----------------|--------------------

Sandy
e|------|-------3=---x----|-----------------|-------3=---x----|------------------
B|------|-------3=---x----|-----------------|-------3=---x----|----------4--3----
G|------|-5=--x-0=---x----|-3=---x----------|-5=--x-0=---x----|-3=---x---3--3----
D|------|-5=--x-0=---x----|-3=---x----------|-5=--x-0=---x----|-3=---x-----------
A|------|-3=--x-x=---x-0--|-1=---x----------|-3=--x-x=---x-0--|-1=---x---------0-
E|------|-------3=---x----|--------1--1-3-1-|-------3=---x----|------------------

SpongeBob
e|-10b11-10~-------|-9b10-8~----------|-6----------|-6/8----8---8/10---7----
B|--------------11-|------------------|-------8----|-----10--------------8--
G|-----------------|------------------|----------8-|------------------------
D|-----------------|------------------|------------|------------------------
A|-----------------|------------------|------------|------------------------
E|-----------------|------------------|------------|------------------------

Sandy
e|-------3=---x----|------------------|------------|------------3----3---
B|-------3=---x----|------------------|------------|------------3----3---
G|-5=--x-0=---x----|-3=---x-----------|-8--8--8--8-|-x----------0----0---
D|-5=--x-0=---x----|-3=---x-----------|-8--8--8--8-|-x--3----x--0----0---
A|-3=--x-x=---x-0--|-1=---x---------1-|-6--6--6--6-|-x--3----x--x----x-0-
E|-------3=---x----|--------1---3-----|------------|----1----x--3----3---

SpongeBob
e|--11b12-10~------|-9b10-8~-------|-11b12-10~---8---
B|--------------11-|-------------8-|-----------------
G|-----------------|---------------|-----------------
D|-----------------|---------------|-----------------
A|-----------------|---------------|-----------------
E|-----------------|---------------|-----------------

Sandy
e|------3-----3----|---------------|------3----3-----
B|------3-----3----|---------------|------3----3-----
G|-5----0-----0----|-3-------------|-5----0----0-----
D|-5----0-----0----|-3-------------|-5----0----0-----
A|-3--0-x-----x-0--|-1--x----------|-3--0-x----x-0---
E|------3-----3----|-------1---3-1-|------3----3-----


SpongeBob Solo
e|--11p8-------------------------------|---------------------|-------------------
B|-------10p8-11p8---------------------|-8-------------------|-------------------
G|-----------------10p8-11p8-10p8------|-8-------------------|----------------8--
D|--------------------------------10---|----10p8-10~---5h7---|-7b8-5---<5>-------
A|-------------------------------------|-------------------7-|-------8-----------
E|-------------------------------------|---------------------|-------------------

Sandy
e|------------------|------3-----3----|---------------
B|----------4--3----|------3-----3----|---------------
G|-3-----x--3--3----|-5----0-----0----|-3-------------
D|-3-----x----------|-5----0-----0----|-3-------------
A|-1-----x--------0-|-3--0-x-----x-0--|-1--x----------
E|------------------|------3-----3----|-------1---3-1-

SpongeBob
e|------------8---------8---8-|-----------11p8------11p8-11p8-11p8------|---------
B|----------8---------8---8---|-10p8-11p8------10p8----------------10p8-|-11/13~--
G|--10b12-------10b12---------|-----------------------------------------|---------
D|----------------------------|-----------------------------------------|---------
A|----------------------------|-----------------------------------------|---------
E|----------------------------|-----------------------------------------|---------

Sandy
e|------------|------------3---3-3--
B|------------|------------3---3-3--
G|-8--8--8--8-|-x-------x--0---0-0--
D|-8--8--8--8-|-x--3----x--0---0-0--
A|-6--6--6--6-|-x--3----x--x---x-x--
E|------------|----1-------3---3-3--



Song 3 (1:17 - 1:53)

Kind of slow hammers on this song on SpongeBob part

SpongeBob
e|------8=-----8=---|-----1-------3---|-----8=-----8=---|-----1-------3----
B|------8=-----8=---|-----1-------3---|-----8=-----8=---|-----1-------3----
G|--8h9------9------|-1h2-----3h4-----|-8h9------9------|-1h2-----3h4------
D|------------------|-----------------|-----------------|------------------
A|------------------|-----------------|-----------------|------------------
E|------------------|-----------------|-----------------|------------------

Sandy
e|------------------|-----------------|-----------------|------------------
B|------------------|-----------------|-----------------|------------------
G|------5-------5---|-----------------|-----5-------5---|------------------
D|--5---5---5---5---|-----3-------5---|-5---5---5---5---|-----3-------5----
A|----3-3-3---3-3-3-|-----3-------5---|---3-3-3---3-3-3-|-----3-------5----
E|------------------|-1-1---1-3-3---3-|-----------------|-1-1---1-3-3---3--

SpongeBob
e|------1=-----1=---|-----1=-----1=---|-----8-------3---|-----8-----3---2--
B|------1=-----1=---|-----1=-----1=---|-----8-------3---|-----8------------
G|--1h2------2------|-1h2------2------|-8h9-----3h4-----|-8h9-----4---3----
D|------------------|-----------------|-----------------|------------------
A|------------------|-----------------|-----------------|------------------
E|------------------|-----------------|-----------------|------------------

Sandy
e|------------------|-----------------|-----------------|------------------
B|------------------|-----------------|-----------------|------------------
G|------------------|-----------------|-----5-----------|-----5------------
D|------3-------3---|-----3-------3---|-5---5-------5---|-5---5---5-x-4-x--
A|------3-------3---|-----3-------3---|---3-3-3-----5---|---3-3-3-5-x-4-x--
E|--1-1---1-1-1---1-|-1-1---1-1-1---1-|---------3-3---3-|---------3-x-2-x--

SpongeBob
e|------1=-----1=---|-----1=-----1=---|-----3-------5---|-----6-------7----
B|------1=-----1=---|-----1=-----1=---|-----------------|------------------
G|--1h2------2------|-1h2------2------|-3h4-----4/5-----|-5/6-----6/7------
D|------------------|-----------------|-----------------|------------------
A|------------------|-----------------|-----------------|------------------
E|------------------|-----------------|-----------------|------------------

Sandy                                   * * * * * * * *
e|------------------|-----------------|-----------------|------------------
B|------------------|-----------------|-----------------|------------------
G|------------------|-----------------|-----------------|------------------
D|------3-------3---|-----3-------3---|-----------------|-5-5-5-5-5-5-5-5--
A|------3-------3---|-----3-------3---|-----------------|-5-5-5-5-5-5-5-5--
E|--1-1---1-1-1---1-|-1-1---1-1-1---1-|-3-3-3-3-3-3-3-3-|-3-3-3-3-3-3-3-3--

SpongeBob
e|------8=-----8=---|-----1-------3---|-----8=-----8=---|-----1-------3----
B|------8=-----8=---|-----1-------3---|-----8=-----8=---|-----1-------3----
G|--8h9------9------|-1h2-----3h4-----|-8h9------9------|-1h2-----3h4------
D|------------------|-----------------|-----------------|------------------
A|------------------|-----------------|-----------------|------------------
E|------------------|-----------------|-----------------|------------------

Sandy
e|------------------|-----------------|-----------------|------------------
B|------------------|-----------------|-----------------|------------------
G|------5-------5---|-----------------|-----5-------5---|------------------
D|--5---5---5---5---|-----3-------5---|-5---5---5---5---|-----3-------5----
A|----3-3-3---3-3-3-|-----3-------5---|---3-3-3---3-3-3-|-----3-------5----
E|------------------|-1-1---1-3-3---3-|-----------------|-1-1---1-3-3---3--

SpongeBob
e|------8=-----8=---|-----5-------7---|-----(8)----
B|------8=-----8=---|-----------------|-----(8)----
G|--8h9------9------|-3h4-----6/7-----|-8h9--------
D|------------------|-----------------|------------
A|------------------|-----------------|------------
E|------------------|-----------------|------------

Sandy                                       Cm
e|------------------|-----------------|-----3------
B|------------------|-----------------|-----4------
G|------5-------5---|-----------------|-----5------
D|--5---5---5---5---|-----3-------5---|-----5------
A|----3-3-3---3-3-3-|-----3-------5---|-----3------
E|------------------|-----1-------3---|-----3------



Song 4 (1:53 - 2:22)

All of the notes are palm muted on SpongeBob part
Let Sandy Chords ring the most possible

SpongeBob
e|------|-----------------|------------------
B|----8-|---8---8---8---8-|---8---8---8---8--
G|--8---|-5---5---8---8---|-5---5---8---8----
D|------|-----------------|------------------
A|------|-----------------|------------------
E|------|-----------------|------------------

Sandy     C
e|------|-3---------------|------------------
B|------|-1---------------|------------------
G|------|-0---------------|------------------
D|------|-2---------------|------------------
A|------|-3---------------|------------------
E|------|-0---------------|------------------

SpongeBob
e|------------------|------------------
B|----8---8---8---8-|---8---8---8---8--
G|--5---5---8---8---|-5---5---8---8----
D|------------------|------------------
A|------------------|------------------
E|------------------|------------------

Sandy
    C
e|--8---------------|------------------
B|--8---------------|------------------
G|--9---------------|------------------
D|--10--------------|------------------
A|--10--------------|------------------
E|--8---------------|------------------

SpongeBob
e|----8---8---8---8-|---8---8---8---8--
B|--6---6---9---9---|-6---6---9---9----
G|------------------|------------------
D|------------------|------------------
A|------------------|------------------
E|------------------|------------------

Sandy
    Fm
e|--8---------------|------------------
B|--9---------------|------------------
G|--10--------------|------------------
D|--10--------------|------------------
A|--8---------------|------------------
E|--8---------------|------------------

SpongeBob
e|------------------|------------------
B|----8---8---8---8-|---8---8---8---8--
G|--5---5---8---8---|-5---5---8---8----
D|------------------|------------------
A|------------------|------------------
E|------------------|------------------

Sandy
    C
e|--3---------------|------------------
B|--1---------------|------------------
G|--0---------------|------------------
D|--2---------------|------------------
A|--3---------------|------------------
E|--0---------------|------------------

Decrease a little the palm muting on this part
SpongeBob
e|------------------|------------------
B|----3---3---4---4-|---3---3---4---4--
G|--0---0---1---1---|-0---0---1---1----
D|------------------|------------------
A|------------------|------------------
E|------------------|------------------

Sandy
    G           G#    G           G#
e|--3-----------4---|-3-----------4----
B|--3-----------4---|-3-----------4----
G|--4-----------5---|-4-----------5----
D|--5-----------6---|-5-----------6----
A|--5-----------6---|-5-----------6----
E|--3-----------4---|-3-----------4----

SpongeBob
e|------------------|------------------
B|----3---3---4---4-|---6---6---7---7--
G|--0---0---1---1---|-3---3---4---4----
D|------------------|------------------
A|------------------|------------------
E|------------------|------------------

Sandy
    G       G#        A#      B
e|--3-------4-------|-6-------7--------
B|--3-------4-------|-6-------7--------
G|--4-------5-------|-7-------8--------
D|--5-------6-------|-8-------9--------
A|--5-------6-------|-8-------9--------
E|--3-------4-------|-6-------7--------

And make again the same palm muting from the beginning
SpongeBob
e|------------------|------------------
B|----8---8---8---8-|---8---8---8---8--
G|--5---5---8---8---|-5---5---8---8----
D|------------------|------------------
A|------------------|------------------
E|------------------|------------------

Gradually push down the vibrato arm at these next chords
Sandy
    C
e|--3---------------|------------------
B|--1---------------|------------------
G|--0---------------|------------------
D|--2---------------|------------------
A|--3---------------|------------------
E|--0---------------|------------------

SpongeBob                               Don't palm mute this last chord
e|------------------|-----------------|------
B|----8---8---8---8-|---8---8---8---8-|-8\---
G|--5---5---8---8---|-5---5---8---8---|-5\---
D|------------------|-----------------|------
A|------------------|-----------------|------
E|------------------|-----------------|------

Sandy                                   Except with this one
    C                                   G
e|--8---------------|-----------------|-10\--
B|--8---------------|-----------------|-8-\--
G|--9---------------|-----------------|-7-\--
D|--10--------------|-----------------|-9-\--
A|--10--------------|-----------------|------
E|--8---------------|-----------------|------



Song 5 (2:22 - 2:55)

SpongeBob
e|--3=----5=----6=----7----|-----8=----8=----8----8----
B|--3=----5=----6=----7----|-8---8=----8=----8----8----
G|--4=----5=----6=----7----|-8h9-------9=----8----8----
D|-------------------------|---------------------------
A|-------------------------|---------------------------
E|-------------------------|---------------------------

Sandy                        C               F
e|--3=----5=----6=----7----|-0---------------1---------
B|--3=----5=----6=----7----|-1---------------1---------
G|--4=----5=----6=----7----|-0---------------2---------
D|-------------------------|-2---------------3---------
A|-------------------------|-3---------------3---------
E|-------------------------|-0---------------1---------

SpongeBob
e|------8=----8=----8----8----|-----8=----8=----8----8-8----
B|--8---8=----8=----8----8----|-7/8-8=----8=----8----8-8----
G|--8h9-------9=----9----9----|-7/8-------8=----8----8-8----
D|----------------------------|-----------------------------
A|----------------------------|-----------------------------
E|----------------------------|-----------------------------

Sandy
    C               C           F               Adim
e|--0---------------3---------|-1---------------5-----------
B|--1---------------1---------|-1---------------4-----------
G|--0---------------0---------|-2---------------5-----------
D|--2---------------2---------|-3---------------7-----------
A|--3---------------3---------|-3---------------------------
E|--0---------------0---------|-1---------------------------

SpongeBob
e|------8=----8=----8----8----|------10=----10=----8----8-----
B|--8---8=----8=----8----8----|-9/10-10=----10=----8----8-----
G|--8h9-------9=----9----9----|-9/10--------10=----8----8-----
D|----------------------------|-------------------------------
A|----------------------------|-------------------------------
E|----------------------------|-------------------------------

Sandy
    C               C           G                  F
e|--0---------------3---------|-3------------------1----------
B|--1---------------1---------|-3------------------1----------
G|--0---------------0---------|-0------------------2----------
D|--2---------------2---------|-0------------------3----------
A|--3---------------3---------|-2------------------3----------
E|--0---------------0---------|-3------------------1----------

SpongeBob
e|--3=----5=----6=----7----|-----8=----8=----8----8----
B|--3=----5=----6=----7----|-8---8=----8=----8----8----
G|--4=----5=----6=----7----|-8h9-------9=----8----8----
D|-------------------------|---------------------------
A|-------------------------|---------------------------
E|-------------------------|---------------------------

Sandy                        C               F
e|--3=----5=----6=----7----|-0---------------1---------
B|--3=----5=----6=----7----|-1---------------1---------
G|--4=----5=----6=----7----|-0---------------2---------
D|-------------------------|-2---------------3---------
A|-------------------------|-3---------------3---------
E|-------------------------|-0---------------1---------

SpongeBob
e|--3----5----6----7----|-8=----10=--------8\----
B|--3----5----6----7----|-8=----10=--------8\----
G|--4----5----6----7----|-9=----10=--------9\----
D|----------------------|------------------------
A|----------------------|------------------------
E|----------------------|------------------------

Sandy                     C     G          C
e|--3----5----6----7----|-3=----3=---------3-----
B|--3----5----6----7----|-5=----3=---------5-----
G|--4----5----6----7----|-5=----4=---------5-----
D|----------------------|------------------------
A|----------------------|------------------------
E|----------------------|------------------------



Song 6 (2:55 - 3:33)

SpongeBob
e|----------------------------------|----------------------------------
B|----4---4---4---4---4---4---4---4-|---4---4---4---4---4---4---4---4--
G|--5---5---4---4---3---3---4---4---|-5---5---4---4---3---3---4---4----
D|----------------------------------|----------------------------------
A|----------------------------------|----------------------------------
E|----------------------------------|----------------------------------

Sandy
e|----------------------------------|----------------------------------
B|----------------------------------|----------------------------------
G|--5---x-4-4---x-3---3---x-4---x-x-|-5---x-4-4---x-3---3---x-4---x-x--
D|--5---x-4-4---x-3---3---x-4---x-x-|-5---x-4-4---x-3---3---x-4---x-x--
A|--3---x-2-2---x-1---1---x-2---x-x-|-3---x-2-2---x-1---1---x-2---x-x--
E|----------------------------------|----------------------------------

SpongeBob
e|----------------------------------|----------------------------------
B|----4---4---4---4---4---4---4---4-|---4---4---4---4---4---4---4---4--
G|--5---5---4---4---3---3---4---4---|-5---5---4---4---3---3---4---4----
D|----------------------------------|----------------------------------
A|----------------------------------|----------------------------------
E|----------------------------------|----------------------------------

Sandy
e|----------------------------------|----------------------------------
B|----------------------------------|----------------------------------
G|--5---x-4-4---x-3---3---x-4---x-x-|-5---x-4-4---x-3---3---x-4---x-x--
D|--5---x-4-4---x-3---3---x-4---x-x-|-5---x-4-4---x-3---3---x-4---x-x--
A|--3---x-2-2---x-1---1---x-2---x-x-|-3---x-2-2---x-1---1---x-2---x-x--
E|----------------------------------|----------------------------------

SpongeBob stays quiet two measures during Sandy's solo

Sandy solo
e|----------------------------------|-3-3-3-3-3---x-4---4---x-6---6----
B|--6-6-6-x-8---x-6---6---x-8---x-x-|-3-3-3-3-3---x-4---4---x-6---6----
G|--5-5-5-x-7---x-5---3---x-7---x-x-|----------------------------------
D|--3-3-3-x-5---x-3---5---x-5---x-x-|----------------------------------
A|----------------------------------|----------------------------------
E|----------------------------------|----------------------------------

SpongeBob
e|----------------------------------|----------------------------------
B|----4---4---4---4---4---4---4---4-|---4---4---4---4---4---4---4---4--
G|--5---5---4---4---3---3---4---4---|-5---5---4---4---3---3---4---4----
D|----------------------------------|----------------------------------
A|----------------------------------|----------------------------------
E|----------------------------------|----------------------------------

Sandy
e|----------------------------------|----------------------------------
B|----------------------------------|----------------------------------
G|--5---x-4-4---x-3---3---x-4---x-x-|-5---x-4-4---x-3---3---x-4---x-x--
D|--5---x-4-4---x-3---3---x-4---x-x-|-5---x-4-4---x-3---3---x-4---x-x--
A|--3---x-2-2---x-1---1---x-2---x-x-|-3---x-2-2---x-1---1---x-2---x-x--
E|----------------------------------|----------------------------------

SpongeBob
e|----------------------------------|----------------------------------
B|----4---4---4---4---4---4---4---4-|---4---4---4---4---4---4---4---4--
G|--5---5---4---4---3---3---4---4---|-5---5---4---4---3---3---4---4----
D|----------------------------------|----------------------------------
A|----------------------------------|----------------------------------
E|----------------------------------|----------------------------------

Sandy
e|----------------------------------|----------------------------------
B|----------------------------------|----------------------------------
G|--5---x-4-4---x-3---3---x-4---4---|----------------------------------
D|--5---x-4-4---x-3---3---x-4---4---|----------------------------------
A|--3---x-2-2---x-1---1---x-2---2---|----------------------------------
E|----------------------------------|----------------------------------

SpongeBob
e|---------3\--
B|--4~-----4\--
G|--5~-----5\--
D|-------------
A|-------------
E|-------------

Sandy
e|---------3\--
B|---------4\--
G|--5~-----5\--
D|--5~-----5\--
A|--3~-----3\--
E|-------------


Login or Register to remove this ad.