Ads

Flying Dutchman's Graveyard (SpongeBob SquarePants: Battle for Bikini Bottom) Guitar Tab

Submitted: Mar 15, 2015 by danfle3 (Last updated: May 13, 2015)

5
Average: 5 (2 votes)
Download | Listen
Game: SpongeBob SquarePants: Battle for Bikini Bottom
Composer(s): Jimmy Levine, Robert Crew, Alex Wilkinson
Style: Transcription

AutoScroll: Slow | Medium | Fast
Flying Dutchman's Graveyard
Spongebob Battle for Bikini Bottom
Tabbed by danfle3
3/9/2015

E|--------------------------------------------------------
B|--------------------------------------------------------
G|--------------------------------------------------------
D|--2--0---------------------------------0-------0--2--3--
A|--------3--2----3--2--0-------0--2--3-------3-----------
E|-------------------------4------------------------------

E|----------------------------------------------------------
B|----------------------------------------------------------
G|-------------------------------1--2--0--------------------
D|--2--0----------------------4-----------3--2--0-----------
A|--------3--2----3--2--0--------------------------3--2--0--
E|-------------------------4--------------------------------

E|--0--------------------1--0--------------------
B|-----0--1--------3--1--------0--1--------------
G|-----------1--2--------------------1--2--------
D|-----------------------------------------2-----
A|--------------------------------------------0--
E|-----------------------------------------------

E|--------------------------------------------------------
B|--------------------------------------------------------
G|--------------------------------------------------------
D|--2--0---------------------------------0-------0--2--3--
A|--------3--2----3--2--0-------0--2--3-------3-----------
E|-------------------------4------------------------------

E|------------------------------------------------------------
B|----------------------------------------------------------4b
G|-------------------------------1--2--0----------------------
D|--2--0----------------------4-----------3--2--0-------------
A|--------3--2----3--2--0--------------------------3--2--0----
E|-------------------------4----------------------------------

E|-----------------------------------------10--11--12--11--10--
B|-------------------------------------------------------------
G|--------------------------------1----------------------------
D|--0--2--3-----0--2--3-----2--4-----2--2----------------------
A|-----------0-----------0-------------------------------------
E|-------------------------------------------------------------

E|-----------------------------------------10--11--12--11--10--
B|-------------------------------------------------------------
G|--------------------------1----------------------------------
D|--0--2--3-----0--2--3--------2--2--2--2----------------------
A|-----------0-----------0-------------------------------------
E|-------------------------------------------------------------

E|-----------------------------------------10--11--12--11--10--
B|-------------------------------------------------------------
G|--------------------------------1----------------------------
D|--0--2--3-----0--2--3-----2--4-----2--2----------------------
A|-----------0-----------0-------------------------------------
E|-------------------------------------------------------------

E|--13--8--12----12--12--12--
B|---------------------------
G|---------------------------
D|---------------------------
A|---------------------------
E|---------------------------

E|--------------------------------------------------------------------------------------------------
B|--------------------------------------------------------------------------------------------------
G|--------------------------------------------------------------------------------------------------
D|--------------------0--0--------2--2--0--0--3--3--2--2--------0--0--------------------------------
A|--0--0--3--3--2--2--------3--3--------------------------3--3--------2--2--3--3--0--0--2--2--------
E|--------------------------------------------------------------------------------------------4--4--

E|-----------------------------------------------------------------------------
B|-----------------------------------------------------------------------------
G|-----------------------------------------------------------------------------
D|--------------------0--0--------2--2--0--0-----------------------------------
A|--0--0--3--3--2--2--------3--3--------------2--2--3--3--0--0--2--2--------0--
E|--------------------------------------------------------------------4--4-----

E|--0--7--8--4--5--1--0--5-----5-----1--0--------------
B|--------------------------3-----1--------3--1--0-----
G|--------------------------------------------------2--
D|-----------------------------------------------------
A|-----------------------------------------------------
E|-----------------------------------------------------

E|-----------0-----0-----------1-----1--------0--5--0--5--1--0--------0--1--
B|-----0--1-----1-----0--1--3-----3-----1--3--------------------3--3--------
G|--2-----------------------------------------------------------------------
D|--------------------------------------------------------------------------
A|--------------------------------------------------------------------------
E|--------------------------------------------------------------------------

E|--0--------------0--------------------------------------------------------
B|-----3--1--1--3-----3--1--0--0--1--3--1--0--------0--1--0-----------------
G|--------------------------------------------2--2-----------2--1--------1--
D|-----------------------------------------------------------------2--4-----
A|--------------------------------------------------------------------------
E|--------------------------------------------------------------------------

E|-----------------------------1--------------0--5--0--5--1--0--------0--1--
B|-----0--1--1--0-----0--1--3-----3--1--1--3--------------------3--3--------
G|--2--------------2--------------------------------------------------------
D|--------------------------------------------------------------------------
A|--------------------------------------------------------------------------
E|--------------------------------------------------------------------------

E|--0--------------0-----------------------------------------
B|-----3--1--1--3-----3--0-----------------------------------
G|--------------------------1--------1--2--------------------
D|-----------------------------2--4--------2--------2--------
A|--------------------------------------------3--0-----3--0--
E|-----------------------------------------------------------

E|--0--7--8--4--5--1--0--5-----5-----1--0--------------------
B|--------------------------3-----1--------3--1--0-----------
G|--------------------------------------------------2--------
D|-----------------------------------------------------2-----
A|--------------------------------------------------------0--
E|-----------------------------------------------------------

E|-----------------------------------------------------------------------------
B|--1--1--------0--0-----------------------------------------------------------
G|--------2--2--------1--1--2--2-----------------------------------------------
D|--------------------------------2--2--3--3--0--0--2--2--------0--0-----------
A|--------------------------------------------------------3--3--------------0--
E|--------------------------------------------------------------------4--4-----
Login or Register to remove this ad.

2 comments on Flying Dutchman's Graveyard

Great Tab

5

Great tab, i really loved this game when I was little and i recently rediscovered it and it's great fun.

awesome work!!!

5

i've been struggling to find any tabs for this game at all, so to not only find this tab but to also love the sound of it is such a pleasant surprise. addictive to play and sounds great on my acoustic. thanks for sharing!