Ads

The Sixth Station (Spirited Away) Guitar Tab

Submitted: Dec 08, 2013 by kakesama (Last updated: Dec 20, 2013)

0
Download | Listen
Game: Spirited Away
Composer(s): Joe Hisaishi
Style: Arrangement, Fingerstyle

This song is also called The Sixth Stop

AutoScroll: Slow | Medium | Fast
The sixth station
game: Spirited away
composer: Joe Hisashi



e|-2----0-----------------|--------------------------8--10-------------|
B|-3-^-----------5--------|-----------5-----------------------------7--|
G|-2-|--------------------|-----------------------------------2--0-----|
D|-2-|--------5--------4--|--------5--------4~----------------------4--|
A|-2-------2--------5-----|-----3--------5-----------------------------|
E|------0-----------------|--0-----------------------------------------|

|-------------------|--------------------|
|--1----------------|-----------------7--|
|-----2-----7--5----|-----2-----7--5-----|
|--------5--------2-|--0-----5--------4--|
|--3----------------|--------------------|
|-------------------|--------------------|

|-----7-----5----------------|-----7--5--7--12--7--|
|--------5--5-------------5--|-----------5------7--|
|-----4--0-------------4-----|---------------7-----|
|--2-----5--2--0--4----------|--2-----5---------4--|    
|----------------------------|-----3---------------|
|--0-------------------------|--0------------------|

|--5--7--5--3--2---------------------|----------------------|
|------------------------------------|--3--5----------------|
|--------------------2---------------|-----4--4-----7-5-----|
|-----------------2------5--7--5--2--|--0-----2--5-------4--|
|------------------------------------|----------------------|
|--0--------------0------------------|----------------------|

|---------------10-------10------------|
|--8-/--12--8~~------------------------|
|---------------------7------7-----9^--|
|--5--------10------------------5--9|--|
|----------------------------8-----8|--|
|--------------------------------------|

|------------------------------1--|
|-----3-----6------------1--------|
|--0-----7------7/5/4-2-----2-----|
|---------------------------------|
|---------------------------------|
|--3------------------3-----------|

|------------1--|-----------2--|
|--1------------|--------------|
|------1---1----|--------2-----|
|------3--------|--4--1-----4--|
|----3----------|--------------|
|--------1------|--2-----------|

|--8----
|--8-^--
|--0-|--
|--7-|--
|-------
|-------


This isn't the whole song(got too difficult to tab)
Login or Register to remove this ad.