Ads

Itsumo Nando demo (Spirited Away) Guitar Tab

Submitted: Jun 25, 2010 by Daugreano

3.333335
Average: 3.3 (3 votes)
Download | Listen
Game: Spirited Away
Composer(s): Joe Hisaishi
Style: Transcription

AutoScroll: Slow | Medium | Fast
Song: Itsu mo Nando demo
Anime: Spirtied Away
Composer: Joe Hisaishi
Tabbed by: Daugreano

Guitar: 

   Q    S  S  S  S  E S  S    E   E   E   S  S  E S  S    Q    S  S  E   E   S  S
E|--------------------------|---------------------------|--------------------------|
B|------------------1-------|-----1---------------------|--------------------------|
G|---------0--2----------2--|-0-------0---------2-------|-----------------------0--|
D|------3--------3----------|-------------3--0-------3--|-2----3--2--0---2---3-----|
A|--------------------------|---------------------------|--------------------------|
E|--------------------------|---------------------------|--------------------------|

   E   E   S  S  E   S  S  S  S    E S  S  S  S  S  S  E S  S    E   E   E   S  S  E   S  S
E|-------------------------------|-----------------------------|-----------------------------|
B|-------------------------------|---------------------1-------|-----1-----------------------|
G|---------0--2--3---3--2--0-----|-0----------0--2----------2--|-0-------0-------------------|
D|-----3----------------------3--|---------3--------3----------|-------------3--0--0---2--3--|
A|-3-----------------------------|-----------------------------|-----------------------------|
E|-------------------------------|-----------------------------|-----------------------------|
   E S  S  E   E   E   S  S    E   E   S  S  S  S  S  S  S  S    Q   E  Q  E   Q    S  S  E   E   E
E|---------------------------|---------------------------------|-------------|------------------------|
B|---------------------------|---------------------------------|-------------|------------1---1---1---|
G|------------------------0--|---------0--2--3-----3--2--0-----|-------------|------2--3--------------|
D|-------------0---2---3-----|-----3------------------------3--|-3-----------|------------------------|
A|-3-------3-----------------|-3-------------------------------|-------------|------------------------|
E|---------------------------|---------------------------------|-------------|------------------------|

   E   S  S  S  S  E   E   E     E   S  S  S  S  S  S  S  S  S  S    E   E   S  S  S  S  S  S  S  S 
E|-----------------------------|-----------------------------------|---------------------------------|
B|-1---1--3--1-----------------|-----------------------------------|---------------------------------|
G|--------------3--2---2---2---|-2---2--3--2--0--------------------|---------------0-----0--2--0--2--|
D|-----------------------------|-----------------3-----3-----3--2--|-0---2---2--3--------------------|
A|-----------------------------|-----------------------------------|---------------------------------|
E|-----------------------------|-----------------------------------|---------------------------------|

   E S  S  S  S  E   E   E     E   S  S  S  S  E   E   E     S  S  S  S  S  S  E   S  S  S  S
E|---------------------------|-----------------------------|-----------------------------------|
B|---------------1---1---1---|-1---1--3--1-----------------|-----------------------------------|
G|-0-------2--3--------------|--------------3--2---2---2---|-2--3--2--0---------------------0--|
D|---------------------------|-----------------------------|-------------3--2------0--2--3-----|
A|---------------------------|-----------------------------|-----------------------------------|
E|---------------------------|-----------------------------|-----------------------------------|
 
Repeat from the beginning two or three times after playing this measure...
                              ------I-----
                                    V
   E   E   S  S  E S  S  S  S    W        Q    S  S  S  S  E S  S    E   E   E   S  S  E S  S
E|-----------------------------|--------|--------------------------|---------------------------|
B|-----------------------------|--------|------------------1-------|-----1---------------------|
G|---------0--2--0----0--0-----|--------|---------0--2----------2--|-0-------0---------2-------|
D|-----3--------------------3--|-3------|------3--------3----------|-------------3--0-------3--|
A|-3---------------------------|--------|--------------------------|---------------------------|
E|-----------------------------|--------|--------------------------|---------------------------|

   Q    S  S  E   E   S  S    E   E   S  S  E   S  S  S  S    E S  S  S  S  S  S  E S  S 
E|--------------------------|-------------------------------|-----------------------------|
B|--------------------------|-------------------------------|---------------------1-------|
G|-----------------------0--|---------0--2--3---3--2--0-----|-0----------0--2----------2--|
D|-2----3--2--0---2---3-----|-----3----------------------3--|---------3--------3----------|
A|--------------------------|-3-----------------------------|-----------------------------|
E|--------------------------|-------------------------------|-----------------------------|

   E   E   S  S  E S  S  S  S    E S  S  E   E   E   S  S    E   E S  S  E   E   S  S
E|-----------------------------|---------------------------|---------------------------|
B|-----1-----------------------|---------------------------|---------------------------|
G|-0-------0-------------------|------------------------0--|------------------------0--|
D|-------------3--0--0---2--3--|-------------0---2---3-----|-----3----2--0---2---3-----|
A|-----------------------------|-3-------3-----------------|-3-------------------------|
E|-----------------------------|---------------------------|---------------------------|

   Q    S  S  E   E   S  S    E   E   S  S  E   S  S  S  S    W        H     E   S  S   
E|--------------------------|-------------------------------|--------|-----------------|
B|--------------------------|-------------------------------|--------|-----------------|
G|-----------------------0--|---------0--2--3---3--2--0-----|--------|-----------2--3--|
D|------3--2--0---2---3-----|-----3----------------------3--|-3------|-----------------|
A|-3------------------------|-3-----------------------------|--------|-----------------|
E|--------------------------|-------------------------------|--------|-----------------|

   E   E   E   E   S  S  S  S    E   E   E   E   S  S  S  S    S  S  S  S  S  S  E   E   S  S
E|-----------------------------|-----------------------------|---------------------------------|
B|-1---1---1---1---1--3--1-----|-----------------------------|---------------------------------|
G|--------------------------3--|-2---2---2---2---2--3--2--0--|---------------------------------|
D|-----------------------------|-----------------------------|-3-----3-----3--2--0---2---2--3--|
A|-----------------------------|-----------------------------|---------------------------------|
E|-----------------------------|-----------------------------|---------------------------------|

   S  S  S  S  S  S  E S  S  S  S    E   E   E   E   S  S  S  S    E   E   E   S  S  S  S  S  S
E|---------------------------------|-----------------------------|-------------------------------|
B|---------------------------------|-1---1---1---1---1--3--1-----|-------------------------------|
G|-0-----0--2--0--2--0-------2--3--|--------------------------3--|-2---2---2---2--3--2--0--------|
D|---------------------------------|-----------------------------|-------------------------3--2--|
A|---------------------------------|-----------------------------|-------------------------------|
E|---------------------------------|-----------------------------|-------------------------------|

   E   S  S  S  S  E   E   S  S    E S  S  S  S  Q E
E|-------------------------------|---------------------|
B|-------------------------------|---------------------|
G|--------------0----------0--2--|-0----0--0-----------|
D|-----0--2--3---------3---------|------------3--3-----|
A|-----------------3-------------|---------------------|
E|-------------------------------|---------------------|



Login or Register to remove this ad.