Ads

Dragon Boy (Spirited Away) Guitar Tab

Submitted: Apr 15, 2010 by diralark

5
Average: 5 (7 votes)
Download | Listen
Game: Spirited Away
Composer(s): Joe Hisaishi
Style: Arrangement, Fingerstyle

AutoScroll: Slow | Medium | Fast

Dragon Boy (from Spirited Away)

Music by Joe Hisaishi, orchestral score by Kristina Ong, tab by Diralark

Guitar solo - Capo 3 - let ring throughout

     E  E  E  E  E  E  E  E     E  E  E  E  E  E  E  E     E  E  E  E  E  E  E  E   
e||--------------------------|--------------------------|--------------------------|
B||--------------------------|--------------0--------0--|--------------------------|
G||--2-----0-----------------|--2-----0-----------2-----|--2-----0-----------------|
D||-----2-----0--2--------0--|-----2-----0-----2--------|-----2-----0--2--------0--|
A||--0--------0-----2--3-----|--0--------0--------------|--0--------0-----2--3-----|
E||-----------------0--------|--------------------------|-----------------0--------|


  E  E  E  E  E  E  E  E     E  E  E  E  E  E  E  E     E  E  E  E  E  E  E  E   
--------------------------|--------------------------|--------------------------|
--------------0--------0--|--------------------------|--------------0--------0--|
--2-----0-----------2-----|--2-----0-----------------|--2-----0-----------2-----|
-----2-----0-----2--------|-----2-----0--2--------0--|-----2-----0-----2--------|
--0--------0--------------|--0--------0-----2--3-----|--0--------0--------------|
-----------------0-----3--|-----------------0--------|--------------------------|


  E  E  E  E  E  E  E  E     E  E  E  E  E  E  E  E     E  E  E  E  E  E  E  E   
--------------------------|--------------------------|--------0-----------------|
--------------------------|--------------0--------0--|-----------------0--1--3--|
--2-----0-----------------|--2-----0-----------2-----|--2-----0--2--------------|
-----2-----0--2--------0--|-----2-----0-----2--------|-----2--------2--------0--|
--0--------0-----2--3-----|--0--------0--------------|--0--------------2--------|
-----------------0--------|-----------------0-----3--|--------------------------|


  E  E  E  E  E  E  E  E     E  E  E  E  E  E  E  E     E  E  E  E  E  E  E  E   
--0-----------------0-----|--------0-----------------|--0-----------------0-----|
-----------3--0--------0--|-----------------0--------|-----------3--0--------0--|
--2-----0--------2--2-----|--2-----0--2--------2-----|--2-----0-----2--2--2-----|
-----2-----0-----2--------|-----2--------2--------0--|-----2-----0--------------|
--0-----------------------|--0-----------------3-----|--0-----------------------|
--------------------------|--------------------------|--------------------------|


  E  E  E  E  E  E  E  E     E  E  E  E  E  E  E  E     E  E  E  E  E  E  E  E   
--------------------------|--------------------------|--------------------------|
--------------------------|--------------0--------0--|--------------------------|
-----2--0-----2--------2--|--2-----0--2-----2--------|--2-----0-----2-----------|
--2--------0--2--------0--|-----2-----0--------2-----|-----2-----0--2--------0--|
--0--------0-----2--3-----|-----0--------0--------0--|--0--------0-----2--3-----|
--------------------------|--------------------------|--0-----------------------|


  E  E  E  E  E  E  E  E     E  E  E  E  E  E  E  E     E  E  E  E  E  E  E  E   
--------------------------|--------0-----------------|--------------------------|
--------------0--------0--|-----------------0--1--3--|--------------0--------0--|
--2-----0--2--------2-----|--2-----0--2--------------|--2-----0-----------2-----|
-----2-----0-----2--------|-----2--------2--------0--|-----2-----0--------------|
-----0--------0-----------|--0--------------2--------|--0-----------2-----------|
--0-----------------------|--------------------------|-----------------0--------|


  E  E  E  E  E  E  E  E     E  E  E  E  E  E  E  E     E  E  E  E  E  E  E  E   
--------------------------|--------------------------|--------0-----------------|
--------------------------|--------------0--------0--|-----------------0--1--3--|
--2-----0-----------------|--2-----0-----------2-----|--2-----0--2--------2-----|
-----2-----0--2--------0--|-----2-----0-----2--------|-----2--------2--------0--|
--0--------------2--3-----|--0-----------2-----------|--0-----------------------|
--------------------------|--------------------------|--------------------------|


  E  E  E  E  E  E  E  E     E  E  E  E  E  S S E  E     E  E  E  E  E  S S E  E   
--------------------------|---------------------------|---------------------------|
--------------0--------0--|--1------------------------|--------------0------------|
--2-----0-----------2-----|--2-----0------------------|--2-----0------------2--0--|
-----2-----0-----2--------|-----2-----2--0----0----0--|--0--2-----2-----2------0--|
--0-----------2-----------|-----0-----------2---3-----|-------------------3-------|
--------------------------|--------3------------------|--------3------------------|


  E  E  E  E  E  S S E  E     E  E  E  E  E  S S E  E     E  E  E  E  E  S S E  E   
---------------------------|---------------------------|---------------------------|
---------------------------|------------------------0--|--1------------------------|
--2-----0------------------|--2-----0-----2------2-----|--2-----0------------------|
-----2-----2--0----0----0--|-----2-----2--0--2------0--|-----2-----2--0----0----0--|
-----0-----------2---3-----|-------------------3-------|-----------------2---3-----|
--------3------------------|--0--------3---------------|--1-----3-----0------------|


  E  E  E  E  E  S S E  S S    E  E  E  E  E  S S E  E     E  E  E  E  E  S S E  E   
----------------------------|---------------------------|---------------------------|
--------------0---------0---|---------------------------|--------------0---------0--|
--2-----0------------2------|--2-----0------------2-----|--2-----0------------2-----|
-----2-----0-----2------0---|-----2-----2--0---------0--|-----2-----2-----2------0--|
--3----------------3------0-|--2--------------2-3-------|-----0--------0----3-------|
--3-----3-----0-------------|--0--------0-----0---------|--------3--0---------0-----|


  E  E  E  E  E  E  E  E     E  E  E  E  E  E  E  E     E  E  E  E  E  E  E  E   
--------------------------|--------------------------|--------------------------|
--------------------------|--------------0--------0--|--------------------------|
--2-----0-----------------|--2-----0-----------2-----|--2-----0-----------------|
-----2-----0--2--------0--|-----2-----0-----2--------|-----2-----0--2--------0--|
--2--------------2--3-----|--2-----------2-----------|--0--------0-----2--3-----|
-----------------0--------|-----------------0--------|-----------------0--------|


  E  E  E  E  E  E  E  E     E  E  E  E  E  E  E  E     E  E  E  E  E  E  E  E   
--------------------------|--------------------------|--------------------------|
--------------0--------0--|--------------------------|--------------0--------0--|
--2-----0-----------2-----|--2-----0-----------------|--2-----0-----------2-----|
-----2-----0-----2--------|-----2-----0--2--------0--|-----2-----0-----2--------|
--0--------0--------------|--0--------0-----2--3-----|--0--------0--------------|
--------------------------|-----------------0--------|-----------------0--------|


  E  E  E  E  E  E  E  E     E  E  E  E  E  E  E  E     S E  S E  S E  S E  E  E   
--------------------------|--------------------------|----------------------------|
--------------------------|--------------0--------0--|----------------------------|
--2-----0-----------------|--2-----0-----------2-----|----------------------------|
-----2-----0-----2-----0--|-----2-----0-----2--------|----------------------------|
--------------------3--0--|--------------------------|--0---------0---------------|
-----3--------3-----3-----|-----3--------3-----3-----|----3--3-3----3--3-3--3--3--|


  S E  S E  S S S S E  E  E     E  S S  S S  S S  S S  S S E  E       E  S S E  E  E  S S E  E   
-----------------------------|-----------------------------------||-----------------------------|
-----------------------------|---------------------------1-------||----------------0------------|
-----------------------------|----------------------0h-2---2-----||*--0------2------------2-----|
--------------------0--------|-----0-----------0h-2-----------2--||*-----0-2----2-----0-2----2--|
--0---------0---3------------|------------0h-3-------------------||-----------------------0-----|
----3--3-3----3---3-3--3--3--|-------0h-3------------------------||---3-------------------------|


  E  S S E  E  S  S S  S E  E       E  S S E  E  E  S S E  E     E  S S E  E  S  S S  S  
--------------------------------||----------------------------|-------------------------|
---------0----------0h-1--------||---------------0------------|---------0----------0h-1-|
--0------------2p-0------2-----*||--0------2------------2-----|--0------------2p-0------|
-----0-2----2---------------2--*||-----0-2----2-----0-2----2--|-----0-2----2------------|
---------2---------------0------||----------------------0-----|---------2---------------|
--------------------------------||--3-------------------------|-------------------------|


  W                   H        Q    Q       Q    H.              Q    Q    Q    Q     
-------------------|---------------------|--------------------|----------------------|
--1----------------|--0------------------|--------------------|----------------------|
--2----------------|-----------0---------|--0----2------------|----------------------|
-------------------|----------------2----|--------------------|----------------------|
-------------------|---------------------|--------------------|----------------------|
--1----------------|--3------------------|--0-----------------|--0----0----0----0----|

                                                                                    da capo
  Q    Q    Q    Q       Q    Q    Q    Q       Q    Q    Q    Q       Q    Q    Q    Q    
----------------------|----------------------|----------------------|----------------------|
--1-------------------|--0-------------------|----------------------|--0-------------------|
----------------------|------------0---------|--0----2--------------|--0-------------------|
----------------------|-----------------2----|----------------------|----------------------|
--0-------------------|----------------------|----------------------|----------------------|
--1----1----1----1----|--3----3----0----3----|--0----0----0----0----|--0----0----0----0----|


    E  E  E  E  E  E  E  E     E  E  E  E  E  E  E  E        E  E  E  E  E  E  E  E   
|---------------------------|---------------------------||---------------------------|
|---------------------------|--------------0--------0---||---------------------------|
|*--2-----0-----------------|--2-----0-----------2-----*||*--2-----0-----------------|
|*-----2-----0--2--------0--|-----2-----0-----2--------*||*-----2-----0--2--------0--|
|---0--------0-----2--3-----|--0--------0---------------||---0--------0-----2--3-----|
|------------------0--------|---------------------------||------------------0--------|


                                        ^                                                     
  E  E  E  E  E  E  E  E       H        Q    E  E     W                   Q    H.             
---------------------------||--0-------------------|-------------------|--------------------||
--------------0--------0---||----------------------|-------------------|--------------------||
--2-----0-----------2-----*||-----------0----------|--2----------------|--L-----------------||
-----2-----0-----2--------*||-----------2----------|--2----------------|--L-----------------||
--0--------0-----------2---||--0--------0-------0--|--0----------------|--L-----------------||
-----------------0-----3---||----------------------|-------------------|--------------------||

Duration Legend
---------------
W - whole
H - half
Q - quarter
E - 8th
S - 16th
T - 32nd
. - note dotted
|-n-| - n-tuplets

Tablature Legend
----------------
L - tied note
x - dead note
g - grace note
(n) - ghost note
> - accentuded note
h - hammer on
p - pull off
b - bend
^ - brush up
v - brush down

Login or Register to remove this ad.

2 comments on Dragon Boy

this sounds weird

5

what does capo 3 mean?

ametueraspirant said what

ametueraspirant said

what does capo 3 mean?

http://en.wikipedia.org/wiki/Capo

the number designates what fret to place the capo on.