Chihiro's Waltz (Spirited Away) Guitar Tab

Submitted: Dec 10, 2017 by kpcart

5
Average: 5 (5 votes)
Download | Listen
Game: Spirited Away
Composer(s): Joe Hisaishi
Style: Arrangement, Fingerstyle

AutoScroll: Slow | Medium | Fast
                       Waltz of Chihiro - Spirited Away                         


Track 1
     E  E  E  E  E  E     E  E  E  E  E  E     E  E  Q    E  E   
E||--------------------|--------------------|-------------------|
B||-----------0--------|-----------0--------|--------3----------|
G||--------0-----0-----|--------0-----0-----|--0-----0-------0--|
D||-----0-----------0--|-----0-----------0--|--------0----0-----|
A||--------------------|--------------------|-----2-------------|
E||--3-----------------|--3-----------------|--3----------------|


  Q    Q    E  E     Q    Q    E  E     Q.     E  E  E     Q    E  E  Q     
------------------|--0---------------|------------0--2--|--3----2-----0----|
-------3-------3--|-------3----1-----|--3---------------|--0---------------|
-------2----------|--0------------0--|--0------0--------|--0---------------|
--4---------0-----|------------2-----|--0---------0-----|----------2-------|
--2---------------|--3---------------|--2---------------|--3---------------|
------------------|------------------|------------------|------------------|


  Q    Q    E  E     Q.     E  E  E     Q    Q    Q       E  E  Q    E  E   
-------3----------|---------0--------|-----------------|-------------------|
--3---------------|--0---------0-----|-----------------|--------3----------|
--0---------0--2--|---------------0--|--2--------------|--0-----0-------0--|
------------0-----|------------2-----|--0--------------|--------0----0-----|
--2---------------|--3---------------|-----------------|-----2-------------|
------------------|------------------|-------3----2----|--3----------------|


  Q    Q    E  E     Q    Q    E  E     Q.     E  E  E     Q    E  E  Q     
------------------|--0---------------|------------0--2--|--3----2-----0----|
-------3-------3--|-------3----1-----|--3---------------|------------------|
-------2----------|--0------------0--|--0------0--------|--0---------------|
--4---------0-----|------------2-----|--0---------0-----|----------2-------|
--2---------------|--3---------------|--2---------------|--3---------------|
------------------|------------------|------------------|------------------|


  Q    E  E  Q       Q    E  E  E  E     Q.     E  E  E     E  E  Q    E  E   
-------3-----7----|--8----------7--5--|--3---------------|-------------------|
--3----------0----|--5----5--7--------|--3------------0--|-------------------|
--0-------0-------|-------------------|--4---------0-----|--2-----2----------|
-------------0----|-------------------|---------0--------|--0-------------0--|
--2---------------|--0----------3-----|------------2-----|-----0-------0-----|
-------3----------|-------------------|--3---------------|--2----------------|


  Q.     E  E  E     E  E  Q    E  E     Q.     E  E  E     E  E  Q    E  E   
------------------|-------------------|------------------|----------------0--|
--0------------0--|--1-----1----0--1--|--3------------3--|--3--2--2----3-----|
--0---------------|--0-----0----------|--0---------0-----|--3----------------|
------------0-----|-----2-------------|------------------|-------------------|
---------2--------|--3----------------|---------2--------|--------1----------|
--3---------------|-------------------|--3---------------|--2----------------|


  E  E  Q    E  E     Q    E  E  Q       E  E  Q    E  E     Q    E  E  Q     
--0-------------0--|--1----0----------|-------------------|--0---------------|
--0-----3----3-----|--3----------3----|--1-----0----1--3--|--1----3-----1----|
--------2----------|------------------|--1-----1----------|------------------|
-----4-------------|----------3-------|-------------------|------------------|
--2----------------|--2---------------|-----2-------------|--0-------3-------|
-------------------|------------------|--0----------------|------------------|


  Q    E  E  Q       E  E  Q    E  E     Q    Q    E  E     Q    Q    E  E   
------------------|-------------------|------------------|--0---------------|
--0---------------|--------3----------|-------3-------3--|-------3----1-----|
--4----3-----2----|--0-----0-------0--|-------2----------|--0------------0--|
--0-------0-------|--------0----0-----|--4---------0-----|------------2-----|
------------------|-----2-------------|--2---------------|--3---------------|
------------------|--3----------------|------------------|------------------|


  Q.     E  E  E     Q    E  E  E  E     Q    E  E  Q       Q     E  E  E   E   
------------0--2--|--3----3-----2--5--|--3----3-----5----|--7-----8-----7------|
--3---------------|--1----------------|--0----------3----|--8----10--------10--|
--0------0--------|--0----------------|--0-------0-------|--0------------------|
--0---------0-----|-------------------|-------------0----|-----------7---------|
--2---------------|--3----------------|--2---------------|--------0------------|
------------------|----------3--------|------------------|---------------------|


  Q      
--3----||
--0----||
--0----||
-------||
--2----||
--3----||




Duration Legend
---------------
W - whole
H - half
Q - quarter
E - 8th
S - 16th
T - 32nd
X - 64th
. - note dotted
|-n-|  - n-tuplets


Tablature Legend
----------------
L - tied note
x - dead note
g - grace note
(n) - ghost note
> - accentuded note
NH - natural harmonic
AH - artificial harmonic
TH - tapped harmonic
SH - semi harmonic
PH - pitch harmonic
h - hammer on
p - pull off
b - bend
br - bendRelease
pb - preBend
pbr - preBendRelease
brb - bendReleaseBend
\n/ - tremolo bar dip
\n - tremolo bar dive
-/n - tremolo bar Release up
/n\ - tremolo bar inverted dip
/n - tremolo bar return
-\n - tremolo bar Release down
S - shift slide
s - legato slide
/ -  slide into from below or out of upwards
\ -  slide into from above or out of downwards
~ - vibrato
W - wide vibrato
tr - trill
TP - tremolo picking
T - tapping
S - slap
P - pop
< - fade in
^ - brush up
v - brush down
Login or Register to remove this ad.

1 comment on Chihiro's Waltz

Fun little song

5

Nice little tune you got there, easy to play too