Tabi no Tochuu (Spice And Wolf) Guitar Tab

Submitted: Feb 07, 2013 by Basisti94

5
Average: 5 (3 votes)
Download | Listen
Game: Spice And Wolf
Composer(s): Tomohiko Kira
Style: Arrangement, Fingerstyle

AutoScroll: Slow | Medium | Fast
                               Tabi No Tochuu
                                
Spice and Wolf
Natsumi Kiyoura
Arranged for guitar by Basisti94 (Miro Laaksonen)
7.2.2013


     H        E  S. T    E  E  E  Q    E     E  E  E  E  E  S. T  
E||-------------------|-------------------|--4--2-----4--2-------|
B||-----------------4-|--6-------------5--|--------5--------2--4-|
G||--------------6----|-----6-----4-------|--2--------2----------|
D||-------------------|--------6--2-------|----------------------|
A||-------------------|--4--------2-------|--0--------0----------|
E||-------------------|-------------------|----------------------|


  E  E  E  Q    E     E  E  E  E  E  S. T    E  E  E  Q    E   
-------------------|--4--2-----4--2-------|-------------------|
--6-------------5--|--------5--------2--4-|--6-------------5--|
-----6-----4-------|--2--------2----------|-----6-----4-------|
--------6--2-------|----------------------|--------6--2-------|
--4--------2-------|--0--------0----------|--4--------2-------|
-------------------|----------------------|-------------------|


                                             ^               
  E  E  E  E  E  E     E  E  E   E  E  E     H        E  E   
--4--2-----------2--|--4------------------|--4--------------|
--------5--4--5-----|------------------7--|--6-----------4--|
--2-----------------|--6------------6-----|--6--------6-----|
--------------------|--6-----4h--6--------|--6--------------|
--0--------0--------|-----4---------------|--4--------------|
--------------------|--4------------------|-----------------|


  S  S Q    E  E  E     S  S Q    Q    E     E  E  E  E  E  E   
---------------------|--------------------|--------------------|
--6h-7-6----------4--|--5h-7-5----L-------|--5--5--5--4--------|
--6------------6-----|--6-----------------|--4--------4-----4--|
------------6--------|------------7-------|--------------4-----|
--4---------4--------|------------7-------|--2--------------2--|
------------------4--|--5--------------5--|--------------------|


  E  E  E  E  E  E     S  S Q    E  E  E     S  S Q    Q    E   
--------------------|---------------------|--------------------|
-----------2--2--4--|--6h-7-6----------4--|--5h-7-5----L-------|
--1--------3--------|--6------------6-----|--6-----------------|
--2-----2--4--------|------------6--------|------------7-------|
-----2--------------|--4---------4--------|------------7-------|
--0--------2--------|------------------4--|--5--------------5--|


  E  E  E  E  E  E     E  E  E  E  E  E     S  S Q    E  E  E   
--------------------|--0-----------------|---------------------|
--5--5--5--4--------|-----------2--2--4--|--6h-7-6----------4--|
--4--------4-----4--|--1--------3--------|--6------------6-----|
--------------4-----|--2-----2--4--------|------------6--------|
--2--------------2--|-----2--------------|--4---------4--------|
--------------------|--0--------2--------|------------------4--|


  S  S Q    Q    E     E  E  E  E  E  E     E  E  E  E  E  E   
--------------------|--------------------|--------------------|
--5h-7-5----L-------|--5--5--5--4--------|-----------2--2--4--|
--6-----------------|--4--------4-----4--|--1--------3--------|
------------7-------|--------------4-----|--2-----2--4--------|
------------7-------|--2--------------2--|-----2--------------|
--5--------------5--|--------------------|--0--------2--------|


  S  S Q    E  E  E     S  S Q    Q    E     E  E  E  E  E  E   
---------------------|--------------------|--------------------|
--6h-7-6----------4--|--5h-7-5----L-------|--5--5--5--4--------|
--6------------6-----|--6-----------------|--4--------4-----4--|
------------6--------|------------7-------|--------------4-----|
--4---------4--------|------------7-------|--2--------------2--|
------------------4--|--5--------------5--|--------------------|


  E  E  E  E  E  E     E  E  E  E  E  E     E  E  S S E  E  E   
--0-----------------|--4--4--4--4--------|---------------------|
-----------2--------|--------------7--5--|--4--4----4-L--------|
--1-----------3--1--|--------6-----------|--------6------------|
--2-----2--1--------|-----6--------------|--------6---6--------|
-----2--------------|--4-----------------|-----6---------6-----|
--0-----------------|--------------------|--4---------------4--|


           ^                     ^                              
  E  E  E  E  E  S S    E  E  E  E  E  E     E  E  E  E  E  E   
--2------------------|--------------0--2--|--4--4--4--4--------|
-----5--4--2--4--0---|-----------2--------|--------------7--5--|
-----------2-------1-|--L--------3--------|--------6-----------|
-----------2-------2-|--L-----2--2--------|-----6--------------|
--0--------0-----0---|-----2--------------|--4-----------------|
---------------------|--0-----------------|--------------------|


                                               ^        ^         
  E  E  S S E  E  E     E  E  E  E  E    E     E  E  E  E  E  E   
---------------------|--2--------------4g5--|--4-----------------|
--4--4----4-L-----5--|-----5--4--2--5-------|--5--------2--------|
--------6------------|-----------2----------|--4--------3--------|
--------6---6--------|--------------2-------|-----2-----4--4-----|
-----6---------6-----|--0----------------0--|--------2--------2--|
--4---------------4--|----------------------|--0--------2--------|


  ^        ^                                                   
  E  E  E  E  E  E     E  E  E  E  E  E     E  E  E  E  E  E   
--------------------|--------------------|--------------------|
--2-----------------|--4-----------------|--4-----2-----4--5--|
--3--------5--5--6--|--------6-----5--6--|--------------------|
--4-----4--6--6-----|-----6--------6-----|-----4--------4-----|
-----4-----6-----6--|--4--------4-----4--|--2--------2-----2--|
--2--------4--------|--------------------|--------------------|


  E  E  E  E  E  E     E  E  E  E  E  E     E   E   E  E   E   E   
--4-----2--------0--|--4-----2-----4--5--|--9---------------------|
--------------2-----|--------------------|---------12-------------|
--3--------3--------|-----------2--------|-----------------9--11--|
--------------4-----|-----4--------4-----|-----11---------11------|
-----4-----------4--|--0--------------0--|--9----------9----------|
--2-----------------|--------------------|------------------------|


   E  E  E  E  E  E     E  E  E   E  E  E     Q.     E  E  E   
---------------------|---------------------|------------------|
--10-----9--------7--|--9-----7--10-----9--|--4---------------|
---------------9-----|---------------------|--5---------5--6--|
------9--------9-----|-----8---------8-----|------------------|
---7--------7--------|--6---------------6--|------------------|
---------------------|---------------------|--4------4--4--4--|


  E  E  E  E  E  E     E  E  E  E  E  E     E  E  E  E  E  E   
--------------------|--------------------|--4-----2--------0--|
--4-----------------|--4-----2-----4--5--|--------------2-----|
--------6-----5--6--|--------------------|--------------------|
--------------------|--------------------|--------------------|
--4--4--4--4--4--4--|--2--2--2--2--2--2--|--1--1--1--1--1--1--|
--------------------|--------------------|--------------------|


  E  E  E  E  E  E     E  E   E  E  E   E      E  E  E  E  E  E   
--4-----2-----4--5--|--9-------------------|---------------------|
--------------------|--------12------------|--10-----9--------7--|
--------------------|---------------9--11--|---------------9-----|
--------------------|----------------------|---------------------|
--0--0--0--0--0--0--|--9--9---9--9--9---9--|---7--7--7--7--7--7--|
--------------------|----------------------|---------------------|


  E  E  E   E  E  E     E  E  E  E  E  S. T    E  E  E  Q    E   
---------------------|----------------------|-------------------|
--9-----7--10-----9--|--------------------4-|--6-------------5--|
---------------------|--6--------------6----|-----6-----4-------|
--8---------6--6--6--|--6-------------------|--------6--2-------|
--6--6--6---6--------|--4--4--4--4--4--4----|--4--------2-------|
---------------------|----------------------|-------------------|


  E  E  E  E  E  S. T    E  E  E  Q    E     E  E  E  E  E  S. T  
--4--2-----4--2-------|-------------------|--4--2-----4--2-------|
--------5--------2--4-|--6-------------5--|--------5--------2--4-|
--2--------2----------|-----6-----4-------|--2--------2----------|
----------------------|--------6--2-------|----------------------|
--0--------0----------|--4--------2-------|--0--------0----------|
----------------------|-------------------|----------------------|


                                                                 ^              
  E  E  E  Q    E     E  E  E  E  E  E     E  E  E   E  E  E     H.             
-------------------|--4--2-----------2--|--4------------------|--4------------||
--6-------------5--|--------5--4--5-----|------------------7--|--6------------||
-----6-----4-------|--2-----------------|--6------------6-----|--6------------||
--------6--2-------|--------------------|--6-----4h--6--------|--6------------||
--4--------2-------|--0--------0--------|-----4---------------|--4------------||
-------------------|--------------------|--4------------------|---------------||




Duration Legend
---------------
W - whole
H - half
Q - quarter
E - 8th
S - 16th
T - 32nd
X - 64th
. - note dotted
|-n-|  - n-tuplets


Tablature Legend
----------------
L - tied note
x - dead note
g - grace note
(n) - ghost note
> - accentuded note
NH - natural harmonic
AH - artificial harmonic
TH - tapped harmonic
SH - semi harmonic
PH - pitch harmonic
h - hammer on
p - pull off
b - bend
br - bendRelease
pb - preBend
pbr - preBendRelease
brb - bendReleaseBend
\n/ - tremolo bar dip
\n - tremolo bar dive
-/n - tremolo bar Release up
/n\ - tremolo bar inverted dip
/n - tremolo bar return
-\n - tremolo bar Release down
S - shift slide
s - legato slide
/ -  slide into from below or out of upwards
\ -  slide into from above or out of downwards
~ - vibrato
W - wide vibrato
tr - trill
TP - tremolo picking
T - tapping
S - slap
P - pop
< - fade in
^ - brush up
v - brush down
Login or Register to remove this ad.