Tabi no Tochuu (Spice And Wolf) Guitar Tab

Submitted: Dec 19, 2010 by Tonda (Last updated: Dec 20, 2010)

5
Average: 5 (2 votes)
Download | Listen
Game: Spice And Wolf
Composer(s): Tomohiko Kira
Style: Transcription

AutoScroll: Slow | Medium | Fast
e||-----------------|--1--2--1--------|-----------------|--0--2--0--------|
b||-------2----4----|-----------------|-------2----4----|-----------------|
g||-----------------|-----------------|-----------------|-----------------|
d||-----------------|-----------------|-----------------|-----------------|
a||-----------------|-----------------|-----------------|-----------------|
E||-----------------|-----------------|-----------------|-----------------|

         
---------------|--0----0----0----|----------------|---------------|
---------------|-----------------|--4--------0----|---------------|
---------------|-----------------|----------------|--1------------|
---------------|-----------------|----------------|---------------|
---------------|-----------------|----------------|---------------|
---------------|-----------------|----------------|---------------|

        
-----------------|--1--2--1--------|-----------------|--0--2--0--------|
-------2----4----|-----------------|-------2----4----|-----------------|
-----------------|-----------------|-----------------|-----------------|
-----------------|-----------------|-----------------|-----------------|
-----------------|-----------------|-----------------|-----------------|
-----------------|-----------------|-----------------|-----------------|

         
---------------|--0----0----0----|----------------|--0------------|
---------------|-----------------|--4--------0----|---------------|
---------------|-----------------|----------------|---------------|
---------------|-----------------|----------------|---------------|
---------------|-----------------|----------------|---------------|
---------------|-----------------|----------------|---------------|

        
-----------------|--1--2--1--------|-----------------|--0--2--0--------|
-------2----4----|-----------------|-------2----4----|-----------------|
-----------------|-----------------|-----------------|-----------------|
-----------------|-----------------|-----------------|-----------------|
-----------------|-----------------|-----------------|-----------------|
-----------------|-----------------|-----------------|-----------------|

          
---------------|--0----0----0----|----------------|---------------|
---------------|-----------------|--4--------0----|---------------|
---------------|-----------------|----------------|--1------------|
---------------|-----------------|----------------|---------------|
---------------|-----------------|----------------|---------------|
---------------|-----------------|----------------|---------------|

        
-----------------|--1--2--1--------|-----------------|--0--2--0--------|
-------2----4----|-----------------|-------2----4----|-----------------|
-----------------|-----------------|-----------------|-----------------|
-----------------|-----------------|-----------------|-----------------|
-----------------|-----------------|-----------------|-----------------|
-----------------|-----------------|-----------------|-----------------|

         
---------------|--0----0----0----|----------------|--0------------|
---------------|-----------------|--4--------0----|---------------|
---------------|-----------------|----------------|---------------|
---------------|-----------------|----------------|---------------|
---------------|-----------------|----------------|---------------|
---------------|-----------------|----------------|---------------|

   
---------------|--4----4----4----|--4----2----0----|-----------------|
---------------|-----------------|-----------------|--4----4----2----|
---------------|-----------------|-----------------|-----------------|
---------------|-----------------|-----------------|-----------------|
---------------|-----------------|-----------------|-----------------|
---------------|-----------------|-----------------|-----------------|

     
----------------|--2----0---------|-----------------|----------------|
--4-------------|------------4----|--2----4----0----|----------------|
----------------|-----------------|-----------------|--1-------------|
----------------|-----------------|-----------------|----------------|
----------------|-----------------|-----------------|----------------|
----------------|-----------------|-----------------|----------------|

   
-------0----2----|--4----4----4----|--4----2----0----|-----------------|
-----------------|-----------------|-----------------|--4----4----2----|
-----------------|-----------------|-----------------|-----------------|
-----------------|-----------------|-----------------|-----------------|
-----------------|-----------------|-----------------|-----------------|
-----------------|-----------------|-----------------|-----------------|

        
-----------0----|--2----0---------|-------0----5----|--4------------|
--4-------------|------------4----|--2--------------|---------------|
----------------|-----------------|-----------------|---------------|
----------------|-----------------|-----------------|---------------|
----------------|-----------------|-----------------|---------------|
----------------|-----------------|-----------------|---------------|


--L------------|--L------------|-----------------|----------------|
---------------|---------------|-------1----2----|--4--------2----|
---------------|---------------|-----------------|----------------|
---------------|---------------|-----------------|----------------|
---------------|---------------|-----------------|----------------|
---------------|---------------|-----------------|----------------|

    
-----------------|----------------|------------0----|--4--------2----|
-------1----2----|--4--------2----|-------4---------|----------------|
-----------------|----------------|-----------------|----------------|
-----------------|----------------|-----------------|----------------|
-----------------|----------------|-----------------|----------------|
-----------------|----------------|-----------------|----------------|

   
------------0----|--4--------2----|-------4----5----|--9--------7----|
-------2---------|----------------|-----------------|----------------|
-----------------|----------------|-----------------|----------------|
-----------------|----------------|-----------------|----------------|
-----------------|----------------|-----------------|----------------|
-----------------|----------------|-----------------|----------------|


-----------------|--5--------4----|------------2----|--4--------2----|
------------7----|----------------|-------5---------|----------------|
-------8---------|----------------|-----------------|----------------|
-----------------|----------------|-----------------|----------------|
-----------------|----------------|-----------------|----------------|
-----------------|----------------|-----------------|----------------|

   
--5--------4----|---------------|-----------------|----------------|
----------------|--4------------|-----------------|--4-------------|
----------------|---------------|-------5----6----|-----------6----|
----------------|---------------|-----------------|----------------|
----------------|---------------|-----------------|----------------|
----------------|---------------|-----------------|----------------|

    
-----------------|----------------|------------0----|--4--------2----|
-----------------|--4-------------|-------4---------|----------------|
-------5----6----|-----------6----|-----------------|----------------|
-----------------|----------------|-----------------|----------------|
-----------------|----------------|-----------------|----------------|
-----------------|----------------|-----------------|----------------|

    
------------0----|--4--------2----|-------4----5----|--9--------7----|
-------2---------|----------------|-----------------|----------------|
-----------------|----------------|-----------------|----------------|
-----------------|----------------|-----------------|----------------|
-----------------|----------------|-----------------|----------------|
-----------------|----------------|-----------------|----------------|

 
-----------------|--5--------4----|------------0----|--4--------2----|
------------7----|----------------|-------2---------|----------------|
-------8---------|----------------|-----------------|----------------|
-----------------|----------------|-----------------|----------------|
-----------------|----------------|-----------------|----------------|
-----------------|----------------|-----------------|----------------|

          
--5--------4----|---------------|---------------||
----------------|--2------------|--L------------||
----------------|---------------|---------------||
----------------|---------------|---------------||
----------------|---------------|---------------||
----------------|---------------|---------------||
Login or Register to remove this ad.

1 comment on Tabi no Tochuu

lonlonjp version deleted? or

5

lonlonjp version deleted? or does my memory serve me wrong? anyway, this tab is great too. simple but serves its purpose. nicely done