Ads

Lianon (SpellForce) Guitar Tab

Submitted: Sep 08, 2010 by Bhael

5
Average: 5 (6 votes)
Download | Listen
Game: SpellForce
Composer(s): Tilman Sillescu
Style: Arrangement, Fingerstyle

AutoScroll: Slow | Medium | Fast
                                    Lianon             
                          Spellforce: The Order of Dawn                         
                                Tilman Sillescu

Capo 3



     E  E  E  E  E  E  E  E     E  E  E  E  E  E  E  E   
E||--0-----------------1-----|--0-----------------------|
B||-----------0--1-----------|-----------1--------0-----|
G||--------2-----------------|--------2-----0-----------|
D||-----2-----------2-----2--|-----2-----------0-----0--|
A||--0-----------------------|--0-----------------------|
E||--------------------------|--------------3-----------|


  E  E  E  E  E  E  E  E     E  E  E  E  E  S S  S  S S  S  
--0--------------3--1-----|--0------------------------0h-3-|
-----------0--1-----------|-----------1-------0h-1h-3------|
--------2-----------------|--------2-----0--0--------------|
-----2-----------------2--|-----2--------------------------|
--0-----------------------|--0-----------------------------|
--------------------------|--------------3-----------------|


  E  E  E  E  E  E  E  E     E  E  E  E  E  E  E  E   
--5-----------------1-----|--0-----------3-----5-----|
-----------0--1-----------|-----------1--------------|
--------2-----------------|--------2-----------------|
-----2-----------2-----2--|-----2--------------------|
--0-----------------------|--0--------------5-----5--|
--------------------------|--------------3-----------|


  E  E  E  E  E  E  E  E     E  E  E  E  E  E  E  E   
--0--------------3--1-----|--0-----------------------|
-----------0--1-----------|-----------1--3-----------|
--------2-----------------|--------2-----------0-----|
-----2-----------------2--|-----2-----------0-----0--|
--0-----------------------|--0-----------------------|
--------------------------|--------------3-----------|


  E  E  E  E  E  E  E  E     E  E  E  E  E  E  E  E   
--0-----------------1-----|--0-----------------------|
-----------0--1-----------|-----------1--0-----------|
--------2-----------------|--------2-----------0-----|
-----2-----------2-----2--|-----2-----------0-----0--|
--0-----------------------|--0-----------------------|
--------------------------|--------------3-----------|


  E  E  E  E  E  E  E  E     E  E  E  E  E  S S  S  S S  S  
-----------------3--1-----|--0------------------------0h-3-|
-----------0--1-----------|-----------1-------0h-1h-3------|
--2-----2-----------------|--------2-----0--0--------------|
-----2-----------------2--|-----2--------------------------|
--0-----------------------|--0-----------------------------|
--------------------------|--------------3-----------------|


  E  E  E  E  E  E  E  E     E  E  E  E  E  E  E  E   
--5-----------------1-----|--0-----------3-----7-----|
-----------0--1-----------|-----------1--------------|
--------2-----------------|--------2-----------------|
-----2-----------2-----2--|-----2--------------------|
--0-----------------------|--0--------------5-----5--|
--------------------------|--------------3-----------|


  E  E  E  E  E  E  E  E     E  E  E  E  E  E  E  E   
--8--------7--5-----------|--0-----------3-----------|
--------------------6-----|-----------1--3-----------|
--------------------------|--------2-----------0-----|
--------7-----------------|-----2-----------0-----0--|
-----7-----------7-----7--|--0-----------------------|
--5-----------------------|--------------3-----------|


  ^                                      ^            
  E  E  E  E  E  E  E  E     E  E  E  E  E  E  E  E   
--0-----------------1-----|--0-----------------------|
-----------0--1-----------|-----------1--0-----------|
--2-----2-----------------|--------2-----0-----0-----|
-----2-----------2-----2--|-----2-----------0-----0--|
--0-----------------------|--0-----------------------|
--------------------------|--------------3-----------|


                                         ^                  
  E  E  E  E  E  E  E  E     E  E  E  E  E  S S  S  S S  S  
-----------------3--1-----|--0------------------------0h-3-|
-----------0--1-----------|-----------1-------0h-1h-3------|
--2-----2-----------------|--------2-----0--0--------------|
-----2-----------------2--|-----2--------0-----------------|
--0-----------------------|--0-----------2-----------------|
--------------------------|--------------3-----------------|


  ^                          ^                        
  E  E  E  E  E  E  E  E     E  E  E  E  E  E  E  E   
--0-----------------------|--2-----------------------|
--1-----------------------|--3-----3-----3-----3-----|
--2-----2-----2-----2-----|--2--2-----2-----2-----2--|
-----2-----2-----2-----2--|--0-----------------------|
--0-----------------------|--------------------------|
--------------------------|--------------------------|


  ^                                                   
  E  E  E  E  E  E  E  E     E  E  E  E  E  E  E  E   
--0-----------------------|--------------------------|
--0-----------------------|-----------------------0--|
--2-----2-----2-----2-----|--------2-----2-----2-----|
-----2-----2-----2-----2--|-----2-----2-----2--------|
--0-----------------------|--0-----------------------|
--------------------------|--------------------------|


  ^                          ^                        
  E  E  E  E  E  E  E  E     E  E  E  E  E  E  E  E   
--------------------------|--------------------------|
--1-----------------------|--0-----------------------|
--0-----0-----0-----0-----|--0-----0-----0-----0-----|
--2--2-----2-----2-----2--|--2--2-----2-----2-----2--|
--3-----------------------|--2-----------------------|
--------------------------|--------------------------|


  ^                                                   
  E  E  E  E  E  E  E  E     E  E  E  E  E  E  E  E   
--------------------------|--------------------------|
--------------1-----------|--------------------0-----|
--2-----2-----------2-----|--------2-----0-----------|
--2--2-----2-----2-----2--|-----2-----2-----2-----2--|
--0-----------------------|--0-----------------------|
--------------------------|--------------------------|


  ^                          ^                          ^                       
  E  E  E  E  E  E  E  E     E  E  E  E  E  E  E  E     E  E  E  E  E  E  Q     
--0-----------------------|--2-----3-----2-----------|--0----------------------|
--1-----------------------|--3-----------------3-----|--0-----1-----0----------|
--2-----2-----2-----2-----|--2--2-----2-----2-----2--|--2-----------------0----|
-----2-----2-----2-----2--|--0-----------------------|-----2-----2-----2-------|
--0-----------------------|--------------------------|--0----------------------|
--------------------------|--------------------------|-------------------------|


                          ^                          ^                       
  Q    Q    Q    E  E     E  E  E  E  E  E  E  E     E  E  E  E  E  E  Q     
-----------------------|--------------------------|-------------------------|
--------------------0--|--1-----------------1-----|--3-----------------3----|
-----------------2-----|--0-----0-----0-----------|--0-----0-----0-----0----|
--2--------------------|--2--2-----2-----2-----2--|--2--2-----2-----2-------|
--0---------0----------|--3-----------------------|--2----------------------|
-------3---------------|--------------------------|-------------------------|


  ^                                                                     
  E  E  E  E  E  E  Q       Q    Q    H           Q    E  E  Q    Q     
--0----------------------|---------------------|------------------1----|
--1----------------------|---------------------|----------0--1---------|
--2-----2-----2-----0----|--2------------------|--2----2---------------|
--2--2-----2-----2-------|--2------------------|-----------------------|
--0----------------------|--0---------0--------|--0--------------------|
-------------------------|-------3-------------|-----------------------|


  H        Q    Q       E  E  E  E  Q    Q        Q    Q    E  E  Q     
--0------------------|-------------------3----|--/5---------3----------|
----------------0----|-----------0--1---------|--------5----------3----|
-----------0---------|--2-----2---------------|----------------0-------|
---------------------|-----2------------------|------------------------|
--0------------------|--0---------------------|---0--------------------|
-----------3---------|------------------------|-------------3----------|


  Q    E  E  Q    Q       Q    Q    Q    Q       H.           Q     
--0---------------1----|--0-------------------|--------------------|
----------0--1---------|--0-------------------|---------------3----|
-------2---------------|-----------------0----|--2-----------------|
-----------------------|------------0---------|--------------------|
--0--------------------|-------2--------------|--0-----------------|
-----------------------|--3-------------------|--------------------|


                                               ^                   
  Q    E  E  H           H        Q    Q       Q.     E  H         
--5-------------------|-----------3----7----|--8------7--5--------|
--5----------5--------|---------------------|--5------------------|
-------5--7-----------|---------------------|--5------------------|
----------------------|---------------------|---------------------|
----------------------|---------------------|---------------------|
--5-------------------|--3------------------|--5------------------|


                       ^                   ^                  
  H        H           W                   H        H         
-----------3--------|--0----------------|--------------------|
--------------------|--1----------------|--0-----------------|
--------------------|--2----------------|-----------0--------|
--2-----------------|-------------------|--0-----------------|
--------------------|--0----------------|--------------------|
--------------------|-------------------|--3-----------------|


  ^                  
  W                  
-------------------||
-------------------||
--2----------------||
--2----------------||
--0----------------||
-------------------||




Duration Legend
---------------
W - whole
H - half
Q - quarter
E - 8th
S - 16th
T - 32nd
X - 64th
. - note dotted
|-n-|  - n-tuplets


Tablature Legend
----------------
L - tied note
x - dead note
g - grace note
(n) - ghost note
> - accentuded note
NH - natural harmonic
AH - artificial harmonic
TH - tapped harmonic
SH - semi harmonic
PH - pitch harmonic
h - hammer on
p - pull off
b - bend
br - bendRelease
pb - preBend
pbr - preBendRelease
brb - bendReleaseBend
\n/ - tremolo bar dip
\n - tremolo bar dive
-/n - tremolo bar Release up
/n\ - tremolo bar inverted dip
/n - tremolo bar return
-\n - tremolo bar Release down
S - shift slide
s - legato slide
/ -  slide into from below or out of upwards
\ -  slide into from above or out of downwards
~ - vibrato
W - wide vibrato
tr - trill
TP - tremolo picking
T - tapping
S - slap
P - pop
< - fade in
^ - brush up
v - brush down
Login or Register to remove this ad.

2 comments on Lianon

oh that's great, I adore play

5

oh that's great,
I adore play it -(^^)-
thanx sir Bhael

A bit tricky for me but it's

5

A bit tricky for me but it's totally worth it! I love playing this over the original song
https://soundcloud.com/mickegitarr/spellforce-lianon