Sorrow (Speed Grapher) Guitar Tab

Submitted: Nov 02, 2009 by kenor

5
Average: 5 (4 votes)
Download | Listen
Game: Speed Grapher
Composer(s): Shinkichi Mitsumune
Style: Arrangement, Fingerstyle

AutoScroll: Slow | Medium | Fast
Sorrow
~Speed Grapher~
Composed by: Shinkichi Mitsumune
Arranged by: kenor

Rhytm: 4/4 metrum



     Q       E  E  E  E  Q    Q       E  E  E  E  Q    E  E     E  E  E  E  E  E  E  E   
E||--0----|--5-----------3----0----|--3----------------5--7--|--8-----7--5-----------0--|
B||-------|--------0---------------|--------------3----------|-----------------8--------|
G||-------|-----------5------------|-----------0-------------|--------------5-----------|
D||-------|-----2------------------|--------4----------------|-----7--------------7-----|
A||-------|--0---------------------|-----2-------------------|--0-----------------------|
E||-------|------------------------|--0----------------------|--------------------------|


  E  E  E  E  Q    Q       E  E  E  E  Q    Q       E  E  E  E  Q    E  E   
--L----------------0----|--5-----------3----0----|--3----------------5--7--|
--------------3---------|------------------------|--------------3----------|
-----------0------------|--------2--4--5---------|-----------0-------------|
--------4---------------|-----2------------------|--------4----------------|
-----2------------------|--0---------------------|-----2-------------------|
--0---------------------|------------------------|--0----------------------|


  E  E  E  E  E  E  E  E     E  E  E  E  Q    Q       E  E  E  E  Q    Q     
--8-----7--5-----------0--|--L----------------0----|--5----------------7----|
-----------------8--------|--------------3---------|------------------------|
--------------5-----------|-----------0------------|-----5--------5----7----|
-----7--------------7-----|--------4---------------|--------5--7------------|
--0-----------------------|-----2------------------|--8---------------------|
--------------------------|--0---------------------|------------------------|


                                                     ^                   
  E  E  E  E  Q    Q       E  E  E  E  Q     Q       H        Q    Q     
--3----------------0----|--------1-----1S----5----|--3--------0---------|
--0-----------3---------|--3----------------------|--3-------------3----|
-----------0------------|-----2-----2-------------|--4------------------|
--------4---------------|--0----------------------|---------------------|
-----2------------------|-------------------------|---------------------|
--0---------------------|-------------------------|--0------------------|


                                         ^                                   
  E  E  E  E  E  E  E  E     E  E  E  E  Q    Q       E  E  E  E  Q    Q     
--0-----------------0-----|--3--------3-------0----|--5-----------3----0----|
-----------0--1--3--------|--------3-----3---------|--------0---------------|
--------2--------------2--|-----2--------0---------|-----------5------------|
-----2--------------------|--3-----------2---------|-----2------------------|
--0-----------------------|------------------------|--0---------------------|
--------------------------|--------------0---------|------------------------|


  E  E  E  E  Q    E  E     E  E  E  E  E  E  E  E     E  E  E  E  Q    Q     
--3----------------5--7--|--8-----7--5-----------0--|--L----------------0----|
--------------3----------|-----------------8--------|--------------3---------|
-----------0-------------|--------------5-----------|-----------0------------|
--------4----------------|-----7--------------7-----|--------4---------------|
-----2-------------------|--0-----------------------|-----2------------------|
--0----------------------|--------------------------|--0---------------------|


  E  E  E  E  Q    Q       E  E  E  E  Q    E  E     E  E  E  E  E  E  E  E   
--5----------------0----|--3----------------5--7--|--8-----7--5-----------0--|
------------------------|--------------3----------|-----------------8--------|
--------2--4--5---------|-----------0-------------|--------------5-----------|
-----2------------------|--------4----------------|-----7--------------7-----|
--0---------------------|-----2-------------------|--0-----------------------|
------------------------|--0----------------------|--------------------------|


  E  E  E  E  Q    Q       E  E  E  E  Q    Q       E  E  E  E  Q    Q     
--L----------------0----|--5----------------7----|--3----------------0----|
--------------3---------|------------------------|--0-----------3---------|
-----------0------------|-----5--------5----7----|-----------0------------|
--------4---------------|--------5--7------------|--------4---------------|
-----2------------------|--8---------------------|-----2------------------|
--0---------------------|------------------------|--0---------------------|


                           ^                                              
  E  E  E  E  Q    Q       H        Q    Q       E  E  E  E  E  E  E  E   
--------1-----1----5----|--3--------0---------|--0-----------------0-----|
--3---------------------|--3-------------3----|-----------0--1--3--------|
-----2-----2------------|--4------------------|--------2--------------2--|
--0---------------------|---------------------|-----2--------------------|
------------------------|---------------------|--0-----------------------|
------------------------|--0------------------|--------------------------|


  E  E  E  E  E  E  E  E     E  E  E  E  E  E  E  E     E  E  E  E  E  E  E  E   
--3--------3--------------|--0-----------------0-----|--3--------3--------------|
--------3-----3--------3--|-----------0--1--3--------|--------3-----3--------3--|
-----2-----------0--2-----|--------2--------------2--|-----2-----------0--2-----|
--3-----------------------|-----2--------------------|--3-----------------------|
--------------------------|--0-----------------------|--------------------------|
--------------0-----------|--------------------------|--------------0-----------|


  E  E  E  E  E  E  E  E     E  E  E  E  E  E  E  E     E  E  E  E  E  E  E  E   
--0-----------------0-----|--3--------3--------------|--0-----------------0-----|
-----------0--1--3--------|--------3-----3--------3--|-----------0--1--3--------|
--------2--------------2--|-----2-----------0--2-----|--------2--------------2--|
-----2--------------------|--3-----------------------|-----2--------------------|
--0-----------------------|--------------------------|--0-----------------------|
--------------------------|--------------0-----------|--------------------------|


                             ^                    ^                    ^                  
  E  E  E  E  E  E  E  E     H        H           H        H           W                  
--3--------3--------------|--5--------3--------|-----------3--------|--0----------------||
--------3-----3--------3--|--0--------3--------|--3--------3--------|--0----------------||
-----2-----------0--2-----|--5--------2--------|--0--------2--------|--2----------------||
--3-----------------------|--------------------|--4-----------------|-------------------||
--------------------------|--0-----------------|--0-----------------|--0----------------||
--------------0-----------|--------------------|--------------------|-------------------||



Legend:
-------
W - whole
H - half
Q - quarter
E - 8th
S - shift slide
v - brush down
Login or Register to remove this ad.

1 comment on Sorrow

nice

nice, this tab is awesome man, good job! your one of my favorite tabber now ^^