Spark in the Dark (Initial D) Guitar Tab

Submitted: Aug 04, 2010 by zen03y (Last updated: Aug 05, 2010)

0
Download | Listen
Game: Initial D
Composer(s): MAN POWER
Style: Transcription

AutoScroll: Slow | Medium | Fast
Title: Spark in the Dark
Anime: Initial D
Artist: MAN POWER
Tempo = 155
Electric Guitar

Tabbed by zen03y/xen05z on August 4th, 2010

Legend
L - tied note
x - dead note
h - hammer on/pull off
b - bend
s - slide
~ - vibrato
g - ghost note
> - accentuated note
t - trill
M - palm mute
. - staccato
P - popping (bass)
S - slapping (bass)
+ - tapping
W - wide vibrato
< - fade in
w - whammy bar
= - tremolo picking
v - brush up
^ - brush down
V - pick stroke up
n - pick stroke down


E |----------------------------|-------|----------------------------|
B |--12L---12-13L---13---------|-------|--12L---12-13L---13---------|
G |--------------------14L-----|--14---|--------------------14------|
D |----------------------------|-------|----------------------------|
A |----------------------------|-------|----------------------------|
E |----------------------------|-------|----------------------------|


----------------------------------------------------|
--13L---------13----15-13-12L---------12------------|
----------------------------------------------------|
----------------------------------------------------|
----------------------------------------------------|
----------------------------------------------------|


----------------------------|----------------|--------------------12------|
--------------------13L-----|--13L---13-13---|--13L---13-15L---15---------|
----------------------------|----------------|----------------------------|
--14L---14-15L---15---------|----------------|----------------------------|
----------------------------|----------------|----------------------------|
----------------------------|----------------|----------------------------|


--12L---------12----13-12---------------------------|--12---|
--------------------------15L---------15-------13---|-------|
--------------------------------------------14------|-------|
----------------------------------------------------|-------|
----------------------------------------------------|-------|
----------------------------------------------------|-------|


----------------------------------------------------|
--10----------12----------13----------15------------|
-----9--10-12----10-12-14----12-14-16----14-16-17---|
----------------------------------------------------|
----------------------------------------------------|
----------------------------------------------------|


-----------------17----17---|--15L---------15-19----20---|
--17L---------17------------|----------------------------|
----------------------------|----------------------------|
----------------------------|----------------------------|
----------------------------|----------------------------|
----------------------------|----------------------------|


----------------------------|
--18L---------18-17----18---|
----------------------------|
----------------------------|
----------------------------|
----------------------------|


-----------------------------------19L---19-20L-----|
--20L---20-18L---18-17----18L---18------------------|
----------------------------------------------------|
----------------------------------------------------|
----------------------------------------------------|
----------------------------------------------------|


--20L---------------------20----20L---20s24L---24---|
----------------------------------------------------|
----------------------------------------------------|
----------------------------------------------------|
----------------------------------------------------|
----------------------------------------------------|


--24L---------24----25-24-22------------------------|
----------------------------------------------------|
----------------------------------------------------|
----------------------------------------------------|
----------------------------------------------------|
----------------------------------------------------|


--10----12----------------10----12------------------|
--------------13-12-10-12-------------13-12-10-12---|
----------------------------------------------------|
----------------------------------------------------|
----------------------------------------------------|
----------------------------------------------------|


----------------------------------------------------|
----------------------------------------------------|
--7-----9-----------------7-----9-------------------|
--------------10-9--7--9--------------10-9--7--9----|
----------------------------------------------------|
----------------------------------------------------|


-----------------------------7--------8--7----------|
-----------8--------10-8--10----10-8--------10-8----|
--9--7--9-----9--7----------------------------------|
----------------------------------------------------|
----------------------------------------------------|
----------------------------------------------------|


-----7--8--10-12-13-10-12-10------------------------|
--10------------------------------------------------|
----------------------------------------------------|
----------------------------------------------------|
----------------------------------------------------|
----------------------------------------------------|


--12s---19-20-19-17-12s---19-20-19-17-12s---19-20---|
----------------------------------------------------|
----------------------------------------------------|
----------------------------------------------------|
----------------------------------------------------|
----------------------------------------------------|


--19-17-12----20b---------------------17----19-20---|
----------------------------------------------------|
----------------------------------------------------|
----------------------------------------------------|
----------------------------------------------------|
----------------------------------------------------|


--19-17-15-19-17-15-13-17-15-13-12-15-13-12-10-13---|
----------------------------------------------------|
----------------------------------------------------|
----------------------------------------------------|
----------------------------------------------------|
----------------------------------------------------|


--12-10-8--13-12-10-8--7L----------------------7----||
----------------------------------------------------||
----------------------------------------------------||
----------------------------------------------------||
----------------------------------------------------||
----------------------------------------------------||

Login or Register to remove this ad.