Ads

Space Land (Mario Party 2) Guitar Tab

Submitted: Aug 17, 2010 by metal (Last updated: Aug 19, 2010)

5
Average: 5 (1 vote)
Download | Listen
Game: Mario Party 2
Composer(s): Yasunori Mitsuda, Hironao Yamamoto, Syohei Bando, Kazuhiko Sawaguchi
Style: Transcription

AutoScroll: Slow | Medium | Fast
E----------------------------------------------------------------------------10----10-13-10
B--------------6---6-----------8---8-11---11-11-11---11--10-8-10---11------11---11---------
G--------7---7---7---8----8------8-----------------------------------10-10-----------------
D8-----8---8----------------8-8------------------------------------------------------------
A--8-8-------------------------------------------------------------------------------------
E------------------------------------------------------------------------------------------

E13---11--11------11-15-11-15---18-18-18---18-17-15-17-------------------------------------
B-----------11-11--------------------------------------------------------------------------
G------------------------------------------------------------------------------------------
D------------------------------------------------------------11-11-11-11-10------8-8-8-8-7-
A---------------------------------------------------------11---------------10--8----------7
E------------------------------------------------------------------------------------------

E----------------------------------9-9-9-9-8-----6-6-6-6-5----9-9-9-9-8--------------------
B---------------------------------9----------8--6---------5--9---------8-----------11-11-11
G--------------------------------------------------------------------------10-10-10--------
D--11-11-11-11-10----8-8-8-8-7----------------------------------
A---------------10--8---------7------------------------------------------------------------
E------------------------------------------------------------------------------------------

E-10-10-10--13-12-13-----------------------------------------14---14-14-14-20---20-20(x5)--
B----------------------------------------------13----13-13-13------------------------------
G-----------------------10-10-10-10----10-10-10--------------------------------------------
D------------------------------------------------------------------------------------------
A------------------------------------------------------------------------------------------
E------------------------------------------------------------------------------------------
Login or Register to remove this ad.

21 comments on Space Land

well pretty good

5

well pretty good

I'm glad you like your own

I'm glad you like your own tab?

self respect is best respect

self respect is best respect

i was just kidding LOL i knew

i was just kidding LOL i knew someone would notice my comments

LOL just kidding you people

5

LOL just kidding you people decide not me

hey you guys change the tabs

5

hey you guys change the tabs you idiots.

Change the tabs? What do you

Change the tabs? What do you want us to do?

dont ask questions, just do

dont ask questions, just do what the man says or we'll get scolded again!

I forgot to tell you that I

I forgot to tell you that I moved all of the notes down a fret when I posted the tab. Your guitar must be out of tune.

Oh, so that's what he meant.

Oh, so that's what he meant. Hehe. And here I was doing my best to bump his tab off the recent tabs list ;-)

E----------------------------

5
E----------------------------------------------------------------------------10----10-13-10
B--------------6---6-----------8---8-11---11-11-11---11--10-8-10---11------11---11---------
G--------7---7---7---8----8------8-----------------------------------10-10-----------------
D8-----8---8----------------8-8------------------------------------------------------------
A--8-8-------------------------------------------------------------------------------------
E------------------------------------------------------------------------------------------

E13---11--11------11-15-11-15---18-18-18---18-17-15-17-------------------------------------
B-----------11-11--------------------------------------------------------------------------
G------------------------------------------------------------------------------------------
D------------------------------------------------------------11-11-11-11-10------8-8-8-8-7-
A---------------------------------------------------------11---------------10--8----------7
E------------------------------------------------------------------------------------------

E----------------------------------9-9-9-9-8-----6-6-6-6-5----9-9-9-9-8--------------------
B---------------------------------9----------8--6---------5--9---------8-----------11-11-11
G--------------------------------------------------------------------------10-10-10--------
D--11-11-11-11-10----8-8-8-8-7----------------------------------
A---------------10--8---------7------------------------------------------------------------
E------------------------------------------------------------------------------------------

E-10-10-10--13-12-13-----------------------------------------14---14-14-14-20---20-20(x5)--
B----------------------------------------------13----13-13-13------------------------------
G-----------------------10-10-10-10----10-10-10--------------------------------------------
D------------------------------------------------------------------------------------------
A------------------------------------------------------------------------------------------
E------------------------------------------------------------------------------------------

the first one i posted i did

5

the first one i posted i did not posted it they change it.

I edited your comment so that

I edited your comment so that it shows up right. (You have to write <pre> before a tab block, and </pre> after it, if you want it to show up correctly.)

It would help if you didn't call people idiots. That makes people not want to help :-(

Also, this song is not quite in A=440, so whether you start on 7 or 8, you'll be a bit off. But if you retune, you can play it as either. I think I'd leave it the way your tab is, and add a note about the tuning, if it were me.

But it's not me, and I don't want to get called an idiot ;-)

Indeed, it's not 440. I

Indeed, it's not 440. I thought that 440 was the rule. What a surprise ! These instruments have a problem !
I wanted to find what was the actual number (because I LOVED Mario Party 2) but... woaw it's too long, I don't have the patience! ^^

touhou 6 isnt in a=440

touhou 6 isnt in a=440 either
(i only know that because plane told me)

Concerning touhou 6... it's

Concerning touhou 6... it's less obvious ^^

well once she told me about

well once she told me about it i could easily hear it myself, so it is obvious :O

Hum... I guess I must fix my

Hum... I guess I must fix my ears ^^

all right ok ok you guys are

5

all right ok ok you guys are not idiot's but you shouldn't of change but i guess your right you guys are the expert.

Hey, if you still want me to,

Hey, if you still want me to, I can change it to the way you had it. It's your tab. Let's just try to stay friendly so we can make the tabs (and the site) as good as possible :D

nah it's all right. Mario

5

nah it's all right. Mario Party 2 is the best in the 64 and i love the theme of space land i play it every time. so you guys and can put two of the tabs.i play in standard tuning and i always tuned it before i play it. i listen to it first then play it and check the rhythm and sound.