Main Theme (Space Harrier) Guitar Tab

Submitted: Oct 31, 2011 by Pasto (Last updated: Nov 01, 2011)

4
Average: 4 (1 vote)
Download | Listen
Game: Space Harrier
Composer(s): Hiroshi Kawaguchi
Style: Transcription

AutoScroll: Slow | Medium | Fast
Title : Space Harrier - Main Theme
Composed by : Hiroshi Kawaguchi 
Tabbed by : Pazto

Lead Part start at 0:25 of the song . . .

E|--------|--------|--------|--------|--------|--------|--------|-13---12--12~---|
B|--------|--------|--------|--------|--------|--------|--------|----------------|
G|--------|--------|--------|--------|--------|--------|--------|----------------|
D|--------|--------|--------|--------|--------|--------|--------|----------------|
A|--------|--------|--------|--------|--------|--------|--------|----------------|
E|--------|--------|--------|--------|--------|--------|--------|----------------|


E|-------\3---5----|-/13--12--12~---|--------|-13---12--12~---|-------10---12---|-13~----|
B|-----------------|----------------|--------|----------------|-----------------|--------|
G|-----------------|----------------|--------|----------------|-----------------|--------|
D|-----------------|----------------|--------|----------------|-----------------|--------|
A|-----------------|----------------|--------|----------------|-----------------|--------|
E|-----------------|----------------|--------|----------------|-----------------|--------|


E|-16---15---13---|-13---12--12~---|--------\3---5---|-/13--12--12~---|--------|-13---12--12~---|
B|----------------|----------------|-----------------|----------------|--------|----------------|
G|----------------|----------------|-----------------|----------------|--------|----------------|
D|----------------|----------------|-----------------|----------------|--------|----------------|
A|----------------|----------------|-----------------|----------------|--------|----------------|
E|----------------|----------------|-----------------|----------------|--------|----------------|


E|-------10---12~--|-13-----|-16---15---13---|-12~----|------0---------10---|-9-----6----|
B|-----------------|--------|----------------|--------|----------8----------|------------|
G|-----------------|--------|----------------|--------|---------------------|------------|
D|-----------------|--------|----------------|--------|---------------------|------------|
A|-----------------|--------|----------------|--------|---------------------|------------|
E|-----------------|--------|----------------|--------|---------------------|------------|


E|-5----------3----1----|-0----1-------------|----------0---1----3---|-5-----3----|
B|----------------------|----------2---------|------2----------------|------------|
G|----------------------|--------------------|-----------------------|------------|
D|----------------------|--------------------|-----------------------|------------|
A|----------------------|--------------------|-----------------------|------------|
E|----------------------|--------------------|-----------------------|------------|


E|-/13---10----|-12-----|------0---------10---|-9~-----|----------12-9-------------------|
B|-------------|--------|-----------8---------|--------|---------------11-10-------------|
G|-------------|--------|---------------------|--------|---------------------12-10-9-----|
D|-------------|--------|---------------------|--------|----------------------------12~--|
A|-------------|--------|---------------------|--------|---------------------------------|
E|-------------|--------|---------------------|--------|---------------------------------|


E|-------0----|-1----0----1----3----1----3----|-5-----3---/15~|-------------------------------|
B|------------|-------------------------------|---------------|-------------------------------|
G|------------|-------------------------------|---------------|-------------------------------|
D|------------|-------------------------------|---------------|-------------------------------|
A|------------|-------------------------------|---------------|-------------------------------|
E|------------|-------------------------------|---------------|-------------------------------|


Repeat as much as you want :3
And . . . . . .
Welcome to the Fantasy Zone ! ! !





Alternate Version by BacardiBreezer

E|--13--12-12~--|-----------13--12-12~---|
B|--------------|-----10-----------------|
G|--------------|--12--------------------|
D|--------------|------------------------|
A|--------------|------------------------|
E|--------------|------------------------|

E|--13--12-12~--|--10--12--13~--|--16--15--13---|
B|--------------|---------------|---------------|
G|--------------|---------------|---------------|
D|--------------|---------------|---------------|
A|--------------|---------------|---------------|
E|--------------|---------------|---------------|

Repeat once

E|--12~--|------10-9-----------|----------------------|
B|-------|----8--------11-10~--|----------------------|
G|-------|--9------------------|--12--10---9-10-------|
D|-------|---------------------|----------------12~---|
A|-------|---------------------|----------------------|
E|-------|---------------------|----------------------|

E|---------------------|--13--10---|
B|-------------10------|-----------|
G|-----9-10-12----12~--|-----------|
D|--12-----------------|-----------|
A|---------------------|-----------|
E|---------------------|-----------|

E|--12~--|------10-9~--|--12-9----------------|
B|-------|----8--------|-------11-10----------|
G|-------|--9----------|-------------12-10-9--|
D|-------|-------------|----------------------|
A|-------|-------------|----------------------|
E|-------|-------------|----------------------|

E|------------------------------15-|
B|------------------------10-------|
G|-----9-10-9-10-12-10-12----12----|
D|--12-----------------------------|
A|---------------------------------|
E|---------------------------------|

E|--------------9-10-11-12--|
B|--10-11-12-13-------------|
G|--------------------------|
D|--------------------------|
A|--------------------------|
E|--------------------------|

Repeat everything above except last staff



Rest for 8 measures 

E|--17-------------15-----------|
B|-----------15-17----17-15-----|
G|--------17----------------17--|
D|------------------------------|
A|------------------------------|
E|------------------------------|

E|--15-------12-----------|
B|--------13-------13-15--|
G|-----14-------14--------|
D|------------------------|
A|------------------------|
E|------------------------|

Repeat two above measures once
Login or Register to remove this ad.

1 comment on Main Theme

Riffs...?

4

By any chance you have the Riffs to the intro...?
I got a half stack waiting to crunch these tunes out.