Ads

The Oath (Guitar Version) (Soulcalibur III) Guitar Tab

Submitted: Jul 21, 2011 by happyfish (Last updated: Jul 23, 2011)

5
Average: 5 (2 votes)
Download | Listen
Game: Soulcalibur III
Composer(s): Junichi Nakatsuru, Ryuichi Takada, Keiki Kobayashi
Style: Transcription

AutoScroll: Slow | Medium | Fast
The Oath (Guitar Version)
Soul Calibur 3
Composed by Junichi Nakatsuru

    ^          ^            ^                             
E|-------------------------------------------------------|
B|--3-----------------------1----------------------------|
G|--3---5------3-----5\-----2----------------------------|
D|--5----------5------------3----------3/5-------5-------|
A|-------------6-------------------------------5---------|
E|--3-----------------------1----------------3-----------|
                                                          
    ^          ^            ^                             
E|-------------------------------------------------------|
B|--3-----------------------1----------------------------|
G|--3---5------3------5\----2-2--------------------------|
D|--5----------5------------3---3------3/5-----5-5-------|
A|-------------6-----------------------------3-----------| 
E|--3-----------------------1----------------------------|
                                                          
                                   ^                      
E|-------------------------------------------------------|
B|----------------------------------------------1--------|
G|-----0----2/3----3/5-----5-------3--2----3-------------|
D|--1-----3-----5-------7----------3---------------------|
A|-------------------------------------------------------|
E|---------------------------------1---------------------|
                                                          
    ^            ^                                        
E|--------------------1------------6------------------------|
B|-----3---------3---------------8---8-------8-------8------|
G|-----3----3----2-------------7-------7---------7----------|
D|---5-----------3-----------8-----------8------------------|
A|-------------------------6--------------------------------|
E|--3------------1------------------------------------------|
                                                          
    ^                                                     
E|-------------------------------------------------------|
B|--4----3----4------------------------------------------|
G|--5----------------------2--2--2~------------3/7~------|
D|--5--------------5-----0-------------------------------|
A|--3----------------------------------------------------|
E|-------------------------------------------------------|
                                                          
                                                          
E|------------3------------3-----------------------------|
B|----------3---3-----3--------3-------------------------|
G|------2-3-------3-2----3----------3---2------------0---|
D|----0-------------------------------------------0------|
A|-------------------------------------------------------|
E|--3------------------------------------------3---------|
Login or Register to remove this ad.

6 comments on The Oath (Guitar Version)

love this song

great job finding all those notes.

i would
1) on line 1 and line 2, the second g string 5th fret notes are vibratos too.

^ ^ ^
E|--------------------------------------------------------|
B|--3------------------------1---------------------------|
G|--3---5------3---5~\----2---------------------------|
D|--5----------5------------3--------3/5-------5-------|
A|-------------6-------------------------------5----------|
E|--3------------------------1---------------3-----------|

^ ^ ^
E|--------------------------------------------------------|
B|--3------------------------1---------------------------|
G|--3---5------3----5~\---2-2-------------------------|
D|--5----------5------------3---3----3/5-----5-5-----|
A|-------------6-----------------------------3-----------|
E|--3------------------------1---------------------------|

2) idk about the 3rd line when it does the climbing... altho technically correct as it is written, it's easy to confuse and play wrong.
Putting more spacing between pairs of notes for this part would be good.
(or u could just rid of the sliding notation for this part and just tell ppl to glide their hand.)

^
E|----------------------------------------------------------|
B|------------------------------------------------1--------|
G|----0----2/3-----3/5-----5-------3--2----3----------|
D|--1-----3-------5-------7---------3-------------------|
A|----------------------------------------------------------|
E|-------------------------------------1-------------------|

3)
using gom player, i slowed down the video.
the last line is

E|------------3--------------------------------------------|
B|----------3---3-----3-----3----------------------------|
G|--------3-------3-----3------3-------------------------|
D|------5-----------5-----5-------5----------------5----|
A|----5-------------------------------------------5-------|
E|--3------------------------------------------3----------|

I rechecked the end and the

I rechecked the end and the middle G needs to be moved up to A in the arpeggio. TXT

which part r u talking about?

which part r u talking about?
last line, i think ur right

so like this

E|------------3--------------------------------------------|
B|----------3---3-----3-----3----------------------------|
G|--------3-------3-----3------3--2----------------------|
D|------5-----------5-----5------------------------5----|
A|----5-------------------------------------------5-------|
E|--3------------------------------------------3----------|

on the first two lines, i

on the first two lines, i actually dont hear a slide down. they are vibratos for sure, but i dont hear any sliding down

^ ^ ^
E|--------------------------------------------------------|
B|--3------------------------1---------------------------|
G|--3---5------3---5~-----2---------------------------|
D|--5----------5------------3--------3/5-------5-------|
A|-------------6-------------------------------5----------|
E|--3------------------------1---------------3-----------|

^ ^ ^
E|--------------------------------------------------------|
B|--3------------------------1---------------------------|
G|--3---5------3----5~----2-2-------------------------|
D|--5----------5------------3---3----3/5-----5-5-----|
A|-------------6-----------------------------3-----------|
E|--3------------------------1---------------------------|

i found it sounds better to

For the very end part,
i find it sounds better to use the d string 7th fret, (instead of g string 2nd fret)
b/c you can keep the existing notes ringing without breaking the "mood".

a bit harder to reach for some, but if possible, the higher goal.

Thank You

5

Thank You so much, i play it very slow xD but i finish it, so happy, Thank you :D