Login or Register to remove this ad.

Spirit (Soul Eater) Guitar Tab

Submitted: Aug 11, 2017 by Ttegdap (Last updated: Aug 11, 2017)

5
Average: 5 (3 votes)
Download | Listen
Game: Soul Eater
Composer(s): T.M.Revolution
Style: Arrangement, Fingerstyle

AutoScroll: Slow | Medium | Fast
                                         Spirit                                           
Capo 2 gives original key, however I would not recommend playing it this way unless you have a cutaway guitar.
Full credit to Coolbreeze for the original transcription of this piece. Also, if you cant play the grace notes up 
higher on the fret board it sounds fine to skip them.

Acoustic Guitar
     E  E  E  E  E  E     E  E  E  E  E  E     E  E  E  E  Q       E  E  Q    Q     
E||-----------0--------|--0-----3--------1--|--0-----------0----|------------------|
B||--------0-----0-----|--------------1-----|--------0----------|--------1---------|
G||-----------------0--|-----2-----2--------|-----0-----0-------|--------2----0----|
D||-----2--------------|--------------------|-------------------|-----3------------|
A||--3-----------------|--------------------|--3----------------|------------------|
E||--------------------|--1-----------------|-------------------|--3---------------|


    E  E  E  E  E  E     E  E  E  E  E  E     E  E  E  E  E  E       E  E  E  E  E  E   
--2g3--------0--------|--3-----1--------0--|--------------------|--0g1-----0-----------|
----------------0-----|-----------1--------|-----------3--------|-------------0-----0--|
----------0--------0--|--------2-----2-----|--2-----2-----2-----|----------1-----1-----|
-------2--------------|-----3-----------3--|-----3-----------3--|-------0-----------0--|
----3-----------------|--------------------|--2-----------------|----------------------|
----------------------|--1-----------------|--------------------|----0-----------------|


  E  E  E  E  E  E     E  E  E  E  E  E     E  E  E  E  E  E     E  E  E  E  Q     
--------------3-----|-----------2-----0--|-----------1--------|-------------------|
--1--------1-----1--|--1-----3-----3-----|--------1-----1-----|-----------0-------|
--------0-----0-----|-----2-----------2--|--2--2--------------|--0-----0-----0----|
-----2-----------2--|--0-----------------|--0--------------0--|-----0--------0----|
--0-----------------|--------------------|--0-----------------|-------------------|
--------------------|--------------------|--------------------|--3----------------|


    E  E  E  E  E  E     E  E  E  E  E  E     E  E  E  E  E  E       E  E  E  E  E  E   
--2g3--------0--------|--3-----1--------0--|--------------------|--0g1-----0-----------|
----------0-----0-----|-----------1--------|-----------3--------|-------------0-----0--|
-------------------0--|--------2-----2-----|--2-----2-----2-----|----------1-----1-----|
-------2--------------|-----3-----------3--|-----3-----------3--|-------0-----------0--|
----3-----------------|--------------------|--2-----------------|----------------------|
----------------------|--1-----------------|--------------------|----0-----------------|


  E  E  E  E  E  E     E  E  E  E  E  E       E  E  E  E  E  E     E  E  E  E  E  E    
--------------0-----|--------2-----------|-------------0--------|--------------0--3S--|
--1--------1-----3--|--1--------0-----0--|--0g1-----1-----1-----|-----------1---------|
--------0-----0-----|-----2--------2--0--|-------------------0--|--------0--0---------|
-----2-----------2--|--0-----------------|-------2--------------|-----2--------2------|
--0-----------------|--------------------|----3-----------------|--3------------------|
--------------------|--------------3-----|----------------------|---------------------|


  E   E   E   E   E   E     E  E  E  E  E   E      E   E  E  E  E   E   
--8----------------------|--7--------6--7--12--|--12-------------------|
-------------10----------|--------9------------|-------------8---------|
---------10----------10--|---------------------|----------9-----9------|
-----10----------10------|-----9---------------|------10-----------10--|
--8----------------------|--8------------------|---0-------------------|
-------------------------|--------------7------|-----------------------|


     E   E   E   E   E   E     E  E  E  E  E    E     Q    E  E  E  E   
10g12g10----------------------|--8--------7--8S--12--|--1----0-----------|
----------------------10--12--|-----------6----------|----------1--0--3--|
------------------11----------|--------5-------------|----------------0--|
--------------12------12------|-----7----------------|-------0-----------|
----------12--------------12--|--5-------------------|-------------------|
------10----------------------|----------------------|--3----------------|


  E  E  E  E  E  E     E  E  E  E  E  E     E  E  E  E  E  E     E  E  E  E  E   E   
--3-----------------|--------------------|--8-----------------|--7--------6--7--12--|
-----------3--------|--------------------|-----------7--------|--------9------------|
--------0-----0-----|--------2--3--2--0--|--------9-----9-----|--------------7------|
-----0-----------0--|--------------------|-----7-----------7--|-----9---------------|
--------------------|-----4--------------|--9-----------------|--8------------------|
--0-----------------|--5-----------------|--------------------|--------------0------|


   E   E  E  E  E   E      E   E   E   E   E   E      E  E  E  E  E  E   
--12-------------------|--13------------------10--|--12--------8--------|
-------------8---------|----------13--------------|---------8-----8-----|
----------9-----9------|------10------------------|------9-----------9--|
------10-----------10--|----------10--12--10------|---------------------|
---0-------------------|--11------------------11--|--10-----------------|
-----------------------|--------------------------|---------------------|


                                                    ^                                   
   E   E   E   E   E   E      E  E  E  E  E  E      Q     Q     Q       Q    Q    Q     
--13--------------10------|--12--------8--------|--10----------------|-----------------|
----------13--10----------|---------8-----8-----|--10----13----10----|--6----5----3----|
----------10------10------|------9-----------9--|--10----------------|-----------------|
------12--------------12--|---------------------|--12----------------|--7----5----3----|
--10----------------------|--10-----------------|--10----------------|-----------------|
--------------------------|---------------------|--------------------|-----------------|


                    ^               ^                                     
  Q    Q    Q       H.              H        Q         E  E  E  E  E  E   
--3----0---------|---------------|----------------|--2g3--------0--------|
--0---------0----|---------------|----------------|----------------0-----|
-------0---------|--2------------|--0--------0----|----------0--------0--|
-----------------|--3------------|--3-------------|-------2--------------|
-----------------|--5------------|--5-------------|----3-----------------|
-----------------|---------------|--1-------------|----------------------|


  E  E  E  E  E  E     E  E  E  E  E  E       E  E  E  E  E  E     E  E  E  E  E  E   
--3-----1--------0--|--------------------|--0g1-----0-----------|--------------3-----|
-----------1--------|-----------3--------|-------------0-----0--|--1--------1-----1--|
--------2-----2-----|--2-----2-----2-----|----------1-----1-----|--------0-----0-----|
-----3-----------3--|-----3-----------3--|-------0-----------0--|-----2-----------2--|
--------------------|--2-----------------|----------------------|--0-----------------|
--1-----------------|--------------------|----0-----------------|--------------------|


  E  E  E  E  E  E     E  E  E  E  E  E     E  E  E  E  Q         E  E  E  E  E  E   
-----------2-----0--|-----------1--------|-------------------|--2g3--------0--------|
--1-----3-----3-----|--------1-----1-----|-----------0-------|----------0-----0-----|
-----2-----------2--|--2--2--------------|--------0-----0----|-------------------0--|
--0-----------------|--0--------------0--|-----0-------------|-------2--------------|
--------------------|--0-----------------|-------------------|----3-----------------|
--------------------|--------------------|--3----------------|----------------------|


  E  E  E  E  E  E     E  E  E  E  E  E       E  E  E  E  E  E     E  E  E  E  E  E   
--3-----1--------0--|--------------------|--0g1-----0-----------|--------------0-----|
-----------1--------|-----------3--------|-------------0-----0--|--1--------1-----3--|
--------2-----2-----|--2-----2-----2-----|----------1-----1-----|--------0-----0-----|
-----3-----------3--|-----3-----------3--|-------0-----------0--|-----2-----------2--|
--------------------|--2-----------------|----------------------|--0-----------------|
--1-----------------|--------------------|----0-----------------|--------------------|


  E  E  E  E  E  E       E  E  E  E  E  E     E  E  E  E  E  E    
--------2-----------|-------------0--------|--------------0--3S--|
--1--------0-----0--|--0g1-----1-----1-----|-----------1---------|
-----2--------2--0--|-------------------0--|--------0--0-----0---|
--0-----------------|-------2--------------|-----2--------2------|
--------------------|----3-----------------|--3------------------|
--------------3-----|----------------------|---------------------|


  E   E   E   E   E   E     E  E  E  E  E   E      E   E  E  E  E   E   
--8----------------------|--7--------6--7--12--|--12-------------------|
-------------10----------|--------9------------|-------------8---------|
---------10------10------|-----7---------------|----------9-----9------|
-----10--------------10--|---------------------|------10-----------10--|
--8----------------------|--8-----------7------|---0-------------------|
-------------------------|---------------------|-----------------------|


     E   E   E   E   E   E     E  E  E  E  E    E     Q    E  E  E  E   
--10g12g10----------------------|--8--------7--8S--12--|--1----0-----------|
--------------------------------|-----------6----------|----------------3--|
--------------------11----------|--------5-------------|----------0--1-----|
----------------12------12------|-----6----------------|-------0-----------|
------------12--------------12--|--5-------------------|-------------------|
--------10----------------------|----------------------|--3----------------|


  E  E  E  E  E  E     E  E  E  E  E  E     E  E  E  E  E  E     E  E  E  E  E   E   
--3-----------------|-----------0--------|--8-----------------|--7--------6--7--12--|
-----------3--------|--------------1-----|-----------7-----7--|--------9------------|
--------0-----0-----|--------0-----------|--------9-----9-----|-----7--------7------|
-----0-----------0--|-----2-----------2--|-----7--------------|---------------------|
--------------------|--0-----------------|--9-----------------|--8------------------|
--0-----------------|--------------------|--------------------|--------------0------|


   E   E  E  E  E   E      E   E   E   E   E   E      E  E  E  E  E  E   
--12-------------------|--13------------------10--|--12--------8--------|
-------------8---------|----------13--------------|---------8-----8-----|
----------9-----9------|------10------------------|------9-----------9--|
------10-----------10--|----------10--12----------|---------------------|
---0-------------------|--11--------------11------|--10-----------------|
-----------------------|--------------------------|---------------------|


                                                         ^               
   E   E   E   E   E   E      E   E   E   E   E   E      Q    Q     Q     
--13--------------10------|--12----------------------|--10----8----------|
----------13--10----------|--------------12----------|--10---------10----|
----------10------10------|----------12------12------|---7---------------|
------12--------------12--|------12--------------12--|---7---------------|
--10----------------------|--10----------------------|---8---------------|
--------------------------|--------------------------|-------------------|


  Q    Q    Q       E  E  E  E  E  E       Q    Q.     E     E  E  E  E  Q     
-----------------|-----------1--0--1--|--0g1----0---------|--------------1----|
--6----5----3----|--1-----1-----------|----------------1--|--1----------------|
-----------------|--------------------|-------------------|-----------2-------|
-----------------|-----0--------------|-------------------|--------3----------|
-----------------|--------------------|-------------------|-------------------|
-----------------|--------------------|-------------------|-----3-------------|


                                                                ^              
    Q    Q.     E     E  E  E  E  E  E     E  E  E  E  E  E     H.             
--0g1----0---------|--------------------|--------------------|---------------||
----------------1--|--1--------1--------|-----------1--------|--1------------||
-------------------|--------0--------0--|--------0--------0--|--0------------||
-------------------|-----2--------2-----|-----2--------2-----|--2------------||
-------------------|--3-----------------|--3-----------------|--3------------||
-------------------|--------------------|--------------------|---------------||




Duration Legend
---------------
W - whole
H - half
Q - quarter
E - 8th
S - 16th
T - 32nd
X - 64th
. - note dotted
|-n-|  - n-tuplets


Tablature Legend
----------------
L - tied note
x - dead note
g - grace note
(n) - ghost note
> - accentuded note
NH - natural harmonic
AH - artificial harmonic
TH - tapped harmonic
SH - semi harmonic
PH - pitch harmonic
h - hammer on
p - pull off
b - bend
br - bendRelease
pb - preBend
pbr - preBendRelease
brb - bendReleaseBend
\n/ - tremolo bar dip
\n - tremolo bar dive
-/n - tremolo bar Release up
/n\ - tremolo bar inverted dip
/n - tremolo bar return
-\n - tremolo bar Release down
S - shift slide
s - legato slide
/ -  slide into from below or out of upwards
\ -  slide into from above or out of downwards
~ - vibrato
W - wide vibrato
tr - trill
TP - tremolo picking
T - tapping
S - slap
P - pop
< - fade in
^ - brush up
v - brush down
Login or Register to remove this ad.

1 comment on Spirit

Oh I was expecting Spirit's

Oh I was expecting Spirit's Metal theme this was a good one though so kudos. :)