Login or Register to remove this ad.

Spirit (Soul Eater) Guitar Tab

Submitted: Mar 19, 2017 by Coolbreeze

5
Average: 5 (1 vote)
Download | Listen
Game: Soul Eater
Composer(s): T.M.Revolution
Style: 2 or more instruments, Arrangement, Fingerstyle

AutoScroll: Slow | Medium | Fast
				  Spirit
				~Soul Eater~

Music by Iwasaki Taku
Tabbed by Coolbreeze
Tempo = 80

Guitar 1


     H.              Q    Q    E  E     H.              Q    Q    Q     
E||---------------|--2----5-------3--|---------------|-----------------|
B||---------------|------------3-----|---------------|-------3---------|
G||---------------|------------------|---------------|------------2----|
D||---------------|------------------|---------------|-----------------|
A||---------------|------------------|---------------|-----------------|
E||---------------|------------------|---------------|-----------------|


      Q    H           Q    Q.     E     H.                Q    H         
|---4g5-------------|--5----3------2--|---------------|--2g3-------------|
|-------------------|-----------------|---------------|------------------|
|*------------------|-----------------|---------------|------------------|
|*------------------|-----------------|---------------|------------------|
|-------------------|-----------------|---------------|------------------|
|-------------------|-----------------|---------------|------------------|


1.
  H        Q       Q    E  E  E  E     E  E  E  E  Q       H.              
-----------5----|-------0--4--0--2--|-----------3-------|----------------||
----------------|-------------------|--0--0--3-----3----|----------------||
----------------|-------------------|-------------------|---------------*||
----------------|-------------------|-------------------|---------------*||
----------------|-------------------|-------------------|----------------||
----------------|-------------------|-------------------|----------------||


  H        E  E     Q    E  E  E  E       Q    H           Q.     Q    S  S  
-----------2--0--|-------4-----------|------------------|--------------5s-9-|
-----------------|----------2--2--2--|--2g3-------------|---------2---------|
-----------------|-------------------|------------------|-------------------|
-----------------|-------------------|------------------|-------------------|
-----------------|-------------------|------------------|-------------------|
-----------------|-------------------|------------------|-------------------|


  S   E.  H            Q.      E   E   E      Q    H         
--9h-10------------|------------------14--|--14-------------|
-------------------|--14------13--14------|-----------------|
-------------------|----------------------|-----------------|
-------------------|----------------------|-----------------|
-------------------|----------------------|-----------------|
-------------------|----------------------|-----------------|


   T   T   E.  E  E   E  E      Q.     E   E  E     Q    Q    Q     
--12h-14p-12-------------9--|--10------9--10-----|-----------------|
------------------9--12-----|-----------------7--|--8----7---------|
----------------------------|--------------------|-----------------|
----------------------------|--------------------|-----------------|
----------------------------|--------------------|-----------------|
----------------------------|--------------------|-----------------|


   Q    H            Q.     Q.         H        Q       Q.     E  E   E   
-----------------|-----------------|--10-------------|--9------8--9--14--|
--10-------------|--10------7------|-----------------|-------------------|
-----------------|-----------------|-----------------|-------------------|
-----------------|-----------------|-----------------|-------------------|
-----------------|-----------------|-----------------|-------------------|
-----------------|-----------------|-----------------|-------------------|


   Q    Q    Q        Q     Q.      E      H        Q        Q     Q     Q     
--14--------------|--15------------12--|--14-------------|--15----------12----|
------------------|--------15----------|-----------------|--------15----------|
--------6---------|--------------------|-----------------|--------------------|
------------------|--------------------|-----------------|--------------------|
------------------|--------------------|-----------------|--------------------|
------------------|--------------------|-----------------|--------------------|


   H        Q        Q     Q    Q       Q    Q    Q       Q    Q    Q     
--14-------------|--12----10----7----|--3----2----0----|--5----2---------|
-----------------|-------------------|-----------------|------------2----|
-----------------|-------------------|--4----2----0----|--6----2---------|
-----------------|-------------------|-----------------|-----------------|
-----------------|-------------------|-----------------|-----------------|
-----------------|-------------------|-----------------|-----------------|


  H.              H.                  Q    H           Q    Q.     E   
---------------|---------------||---4g5-------------|--5----3------2--|
---------------|---------------||-------------------|-----------------|
---------------|---------------||*------------------|-----------------|
---------------|---------------||*------------------|-----------------|
---------------|---------------||-------------------|-----------------|
---------------|---------------||-------------------|-----------------|


                                   1.
  H.                Q    H           H        Q       Q    E  E  E  E   
---------------|--2g3-------------|-----------5----|-------0--4--0--2--|
---------------|------------------|----------------|-------------------|
---------------|------------------|----------------|-------------------|
---------------|------------------|----------------|-------------------|
---------------|------------------|----------------|-------------------|
---------------|------------------|----------------|-------------------|


  E  E  E  E  Q       H.                H        E  E     Q    E  E  E  E   
-----------3-------|----------------||-----------2--0--|-------4-----------|
--0--0--3-----3----|----------------||-----------------|----------2--0--2--|
-------------------|---------------*||-----------------|-------------------|
-------------------|---------------*||-----------------|-------------------|
-------------------|----------------||-----------------|-------------------|
-------------------|----------------||-----------------|-------------------|


    Q    H           Q.     Q    S  S     Q    H            Q.      E   E   E   
------------------|---------2----5s-9-|--10-------------|------------------14--|
--2g3-------------|---------3---------|-----------------|--14------13--14------|
------------------|-------------------|-----------------|----------------------|
------------------|-------------------|-----------------|----------------------|
------------------|-------------------|-----------------|----------------------|
------------------|-------------------|-----------------|----------------------|


   Q    H               Q    H            Q.     E   E  E     Q    Q    Q     
--14-------------|--12g14-------------|--10------9--10-----|-----------------|
-----------------|--------------------|-----------------7--|--8----7---------|
-----------------|--------------------|--------------------|-----------------|
-----------------|--------------------|--------------------|-----------------|
-----------------|--------------------|--------------------|-----------------|
-----------------|--------------------|--------------------|-----------------|


   Q    H           H.               H        Q       Q.     E  E   E   
-----------------|---------------|--10-------------|--9------8--9--14--|
--10-------------|---------------|-----------------|-------------------|
-----------------|---------------|-----------------|-------------------|
-----------------|---------------|-----------------|-------------------|
-----------------|---------------|-----------------|-------------------|
-----------------|---------------|-----------------|-------------------|


   Q    H            Q     Q.      E      Q    H            Q     Q     Q     
--14-------------|--15------------12--|--14-------------|--15----------12----|
-----------------|--------15----------|-----------------|--------15----------|
-----------------|--------------------|-----------------|--------------------|
-----------------|--------------------|-----------------|--------------------|
-----------------|--------------------|-----------------|--------------------|
-----------------|--------------------|-----------------|--------------------|


   Q    H            Q     Q    Q       Q    Q    Q       Q    E  E  E  E   
--14-------------|--12----10----7----|-----------------|----------3--2--3--|
-----------------|-------------------|--8----7----5----|--3----3-----------|
-----------------|-------------------|-----------------|-------------------|
-----------------|-------------------|-----------------|-------------------|
-----------------|-------------------|-----------------|-------------------|
-----------------|-------------------|-----------------|-------------------|


    Q    Q.     E     Q    Q.     E       Q    Q.     E     Q    H         
--2g3----2---------|--------------3--|--2g3----2---------|----------------|
----------------3--|--3--------------|----------------3--|--3-------------|
-------------------|-----------------|-------------------|----------------|
-------------------|-----------------|-------------------|----------------|
-------------------|-----------------|-------------------|----------------|
-------------------|-----------------|-------------------|----------------|


  H.              H.             
---------------|---------------||
---------------|---------------||
---------------|---------------||
---------------|---------------||
---------------|---------------||
---------------|---------------||


Guitar 2


     E  E  E  E  E  E     E  Q    Q    E     E  E  E  E  Q     
E||-----------2--------|------------------|--2-----------2----|
B||--------2-----2-----|-----0----0-------|--------2----------|
G||-----------------2--|---------------0--|-----2-----2-------|
D||-----4--------------|------------------|--0----------------|
A||--5-----------------|------------------|-------------------|
E||--------------------|--3---------------|-------------------|


  E  E  H             E  E  E  E  E  E     E  E  E  E  E  E   
-----------------||------------2--------|--------------------|
--------0--------||---------------2-----|--------0--3--0-----|
-----0-----------||*--------2--------2--|-----0-----------0--|
-----------------||*-----4--------------|--------------------|
--0--------------||---5-----------------|--------------------|
-----------------||---------------------|--3-----------------|


                                          1.
  E  E  E  E  E  E     E  E  E  E  E  E     E  E  E  E  E  E   
-----------0--------|--------2-----------|--------------------|
--0-----0-----0-----|-----------2-----2--|--3--------3-----3--|
-----0-----------0--|--------3-----3-----|--------2-----2-----|
--------------------|-----2-----------2--|-----4-----------4--|
--4-----------------|--------------------|--2-----------------|
--------------------|--2-----------------|--------------------|


                                                   ^                            
  E  Q    Q    E     Q.     Q    E     E  E  E  E  Q         E  E  E  E  E  E   
------------------|-----------------|--------------------||--------------------|
--3---------------|-----------------|-----------2--------||--3--------3--------|
-----4------------|-----------------|--2-----2-----2----*||--------2-----2-----|
--2---------------|--2-----------2--|-----2--------2----*||-----4-----------4--|
---------------2--|-----------------|--0-----------------||--2-----------------|
------------------|-----------------|--------------------||--------------------|


             ^                                               
  E  E  Q    E  E     E  E  E  E  E  E     E  E  E  E  Q     
-------------------|-----------2--------|--------------2----|
--3----------0-----|--------3-----3-----|--------3--3-------|
-----4----------2--|-----------------2--|--------------2----|
--2----------------|-----4--------------|-----4-----4-------|
-------------0-----|--5-----------------|--5----------------|
-------------------|--------------------|-------------------|


                                  ^                                             
  E  E  E  E  E  E     E  E  Q    E  E     E  E  E  E  E  E     E  E  H         
--------------------|-------------0-----|-----------2--------|-----------------|
--------0--3--0--0--|-------------------|--------------3-----|--------5--------|
-----0--------------|--------3----------|--------2--------2--|-----4-----------|
--------------------|-----2----------4--|-----4--------------|--2--------------|
--------------------|-------------4-----|--2-----------------|-----------------|
--3-----------------|--3----------------|--------------------|-----------------|


  E  E  E  E  Q       Q    Q    E  E     E  E  E  E  E  E     Q.     Q    E   
--------3----------|---------------0--|-----------0--------|-----------------|
--3----------------|------------2-----|--------------------|---------1-------|
-----4-----4-------|------------------|--------2-----2-----|--------------2--|
--2----------------|-------2----------|-----2-----------2--|-----------------|
-------------------|--0------------0--|--------------------|--2--------------|
-------------------|------------------|--2-----------------|-----------------|


                                  ^                   v                         
  E  E  E  E  E  E     E  E  Q    Q       E  E  E  E  Q       E  E  E  Q    E   
--------------------|-------------0----|-------------------|-----------2----0--|
-----------3--------|------------------|-----------3-------|--------3----------|
--------4-----4-----|--------3---------|--------2-----2----|-----0-------------|
-----4-----------4--|-----2------------|-----4--------4----|-------------------|
--------------------|------------------|--2----------------|--1----------------|
--4-----------------|--3----------2----|-------------------|-------------------|


                                                               ^             
  E  E  E  E  E  E     E  E  Q.     E     E  E  E  E  E  E     H.            
--------------------|------------------|--------------------|---------------|
-----------3--------|--------0---------|-----------3--------|--0------------|
--------2-----2-----|-----0---------0--|--------2-----2-----|--0------------|
-----4-----------4--|------------------|-----4-----------4--|--0------------|
--0-----------------|--0---------------|--0-----------------|--0------------|
--------------------|------------------|--------------------|---------------|


                                  ^               ^              
  H.              H.              H.              H        Q     
---------------|---------------|---------------|----------------|
---------------|---------------|--0------------|----------------|
---------------|---------------|--0------------|--0--------2----|
---------------|---------------|--2------------|--2-------------|
---------------|---------------|---------------|--0-------------|
---------------|---------------|--0------------|--3-------------|


    E  E  E  E  E  E     E  E  E  E  E  E     E  E  E  E  E  E   
|------------2--------|--------------------|-----------0--------|
|---------------2-----|--------0--3--0-----|--0-----0-----0-----|
|*--------2--------2--|-----0-----------0--|-----0-----------0--|
|*-----4--------------|--------------------|--------------------|
|---5-----------------|--------------------|--4-----------------|
|---------------------|--3-----------------|--------------------|


                     1.
  E  E  E  E  E  E     E  E  E  E  E  E     E  Q    Q    E     Q    Q.     E   
--------2-----------|--------------------|------------------|-----------------|
-----------2-----2--|--3--------3-----3--|--3---------------|-----------------|
--------3-----3-----|--------2-----2-----|-----4------------|-----------------|
-----2-----------2--|-----4-----------4--|--2---------------|--2-----------2--|
--------------------|--2-----------------|---------------2--|-----------------|
--2-----------------|--------------------|------------------|-----------------|


              ^                                               
  E  E  E  E  Q         E  E  Q    E  E     E  E  Q    E  E   
--------------------||-------------------|-------------------|
-----------2--------||--3----------3-----|--3----------------|
--------2-----2----*||--------2-------2--|-----4-------0--2--|
-----2--------2----*||-----4-------------|--2----------------|
--0-----------------||--2----------------|-------------------|
--------------------||-------------------|-------------------|


  E  E  E  E  E  E     E  E  Q    E  E     E  E  E  E  E  E   
-----------2--------|-------------2-----|--------------------|
--------3-----3-----|--------2----------|--------0--3--0-----|
-----2-----------2--|--------2-------2--|-----0-----------0--|
--0-----------------|-----4-------4-----|--------------------|
--------------------|--5----------------|--------------------|
--------------------|-------------------|--3-----------------|


             ^                                                                 
  E  E  Q    E  E     E  E  E  E  E  E     E  Q    E  E  E     E  Q.     Q     
-------------0-----|-----------2--------|----------4--------|-----------------|
-------------------|--------------3-----|-------------5-----|-----------------|
--------3----------|--------2--------2--|-----4----------4--|-----3-----------|
-----2----------4--|-----4--------------|--2----------------|--2--------------|
-------------4-----|--2-----------------|-------------------|-----------------|
--3----------------|--------------------|-------------------|-----------------|


            ^                                               
  Q    Q    E  E     E  E  E  E  E  E     E  E  Q    E  E   
---------------0--|-----------0--------|-------------------|
------------2-----|--------------------|-------------------|
-------2----------|--------2-----2-----|--------2-------2--|
------------------|-----2-----------2--|-----4-------------|
--0---------------|--------------------|--2----------0-----|
------------3-----|--2-----------------|-------------------|


                                  ^                                             
  E  E  E  E  E  E     E  E  Q    Q       E  E  E  E  E  E     E  Q    E  Q     
--------------------|-------------0----|-----------2--------|----------0-------|
-----------3-----3--|------------------|--------------3-----|------------------|
--------4-----4-----|--------3---------|--------2--------2--|-----0-------3----|
-----4--------------|-----2------------|-----4--------------|------------------|
--------------------|------------------|--2-----------------|--1---------------|
--4-----------------|--3----------2----|--------------------|------------------|


                                                            ^             
  E  E  E  E  E  E     E  Q    Q.        E  E  Q    Q       H.            
--------------------|-----------------|--------2---------|---------------|
-----------2--------|----------3------|------------------|---------------|
--------2-----2-----|-----0-----------|-----2------------|--4------------|
-----4-----------0--|-----------------|------------------|--5------------|
--0-----------------|--0--------------|--0----------0----|---------------|
--------------------|-----------------|------------------|---------------|


  H.              E  Q.     Q       H.              E  E  E  Q.      
---------------|-----------------|---------------|------------------|
---------------|-----------------|---------------|-----------0------|
---------------|-----------------|---------------|--------0---------|
---------------|-----2-----------|---------------|------------------|
---------------|-----------------|---------------|-----0------------|
---------------|-----------------|---------------|------------------|


                                                            ^              
  H.              E  E  E  E  E  E     E  E  E  E  E  E     H.             
---------------|--------------------|--------------------|--2------------||
---------------|-----------3--------|-----------3--------|--3------------||
---------------|--------2--------2--|--------2--------2--|--2------------||
---------------|-----4--------4-----|-----4--------4-----|--4------------||
---------------|--5-----------------|--5-----------------|--5------------||
---------------|--------------------|--------------------|---------------||
Login or Register to remove this ad.

1 comment on Spirit

Not going to lie when I saw

Not going to lie when I saw Soul Eater in the title I was hoping it was going to be Malleus Maleficarum, but this was a really good song as well so I'm happy. :)