Login or Register to remove this ad.

Spirit (Soul Eater) Guitar Tab

Submitted: Mar 19, 2017 by Coolbreeze (Last updated: Aug 03, 2017)

5
Average: 5 (1 vote)
Download | Listen
Game: Soul Eater
Composer(s): T.M.Revolution
Style: 2 or more instruments, Transcription

AutoScroll: Slow | Medium | Fast
			   	       Spirit
				~Soul Eater O.S.T 2~

Music by Taku Iwasaki
Performed by Tsuneo Imahori
Tabbed by Coolbreeze
Tempo = 78


Guitar 1

     H.              H.              H.              H        Q     
E||---------------|---------------|---------------|----------------|
B||---------------|---------------|---------------|----------------|
G||---------------|---------------|---------------|-----------2----|
D||---------------|---------------|---------------|----------------|
A||---------------|---------------|---------------|----------------|
E||---------------|---------------|---------------|----------------|


    H        Q       Q    Q.     E     H.                Q    Q.     E   
--4g5-------------|--5----3------2--|---------------|--2g3----2---------|
------------------|-----------------|--0------------|----------------2--|
------------------|-----------------|---------------|-------------------|
------------------|-----------------|---------------|-------------------|
------------------|-----------------|---------------|-------------------|
------------------|-----------------|---------------|-------------------|


  H        E  E     Q    Q.     E     H.              Q    Q    Q     
-----------5-----|-------0------2--|---------------|-----------------|
--3-----------3--|--3--------------|--0------------|-----------------|
-----------------|-----------------|---------------|--2---------2----|
-----------------|-----------------|---------------|-----------------|
-----------------|-----------------|---------------|-----------------|
-----------------|-----------------|---------------|-----------------|


    H        Q       Q    Q.     E     H.                Q    Q.     E   
--4g5-------------|--5----3------2--|---------------|--2g3----2---------|
------------------|-----------------|--0------------|----------------2--|
------------------|-----------------|---------------|-------------------|
------------------|-----------------|---------------|-------------------|
------------------|-----------------|---------------|-------------------|
------------------|-----------------|---------------|-------------------|


  H        E  E     Q.     E  E  E       H.              Q.     E  E  S  S  
-----------2--0--|------------------|-----------------|------------2--5s-9-|
--3--------------|--3------2--0--2--|--2g3------------|---------3----------|
-----------------|------------------|-----------------|--------------------|
-----------------|------------------|-----------------|--------------------|
-----------------|------------------|-----------------|--------------------|
-----------------|------------------|-----------------|--------------------|


     H        Q        Q.      E   E   E      H        Q     
--9g10-------------|------------------14--|--14-------------|
-------------------|--14------13--14------|-----------------|
-------------------|----------------------|-----------------|
-------------------|----------------------|-----------------|
-------------------|----------------------|-----------------|
-------------------|----------------------|-----------------|


   T   T   E.  E  E   E  E      Q.     E   E   E     Q    Q    E  E   
--12h-14p-12-------------9--|--10------9--10--14--|------------------|
------------------9--12-----|---------------------|--8----7----------|
----------------------------|---------------------|---------------9--|
----------------------------|---------------------|------------------|
----------------------------|---------------------|------------------|
----------------------------|---------------------|------------------|


   H        Q       H.               H        Q       Q.     E  E   E   
-----------------|---------------|--10-------------|--9------8--9--14--|
--10-------------|---------------|-----------------|-------------------|
-----------------|---------------|-----------------|-------------------|
-----------------|---------------|-----------------|-------------------|
-----------------|---------------|-----------------|-------------------|
-----------------|---------------|-----------------|-------------------|


   H        Q        Q     Q.      E      H        Q        Q     Q     Q     
--14-------------|--15------------12--|--14-------------|--15----------12----|
-----------------|--------15----------|-----------------|--------15----------|
-----------------|--------------------|-----------------|--------------------|
-----------------|--------------------|-----------------|--------------------|
-----------------|--------------------|-----------------|--------------------|
-----------------|--------------------|-----------------|--------------------|


   H        Q        Q     Q    Q       Q    Q    Q       Q    Q    Q     
--14-------------|--12----10----7----|--3----2----0----|--5----2---------|
-----------------|-------------------|-----------------|------------2----|
-----------------|-------------------|--4----2----0----|--6----2---------|
-----------------|-------------------|-----------------|-----------------|
-----------------|-------------------|-----------------|-----------------|
-----------------|-------------------|-----------------|-----------------|


  ^               ^                                                  
  H.              H        Q         H.              Q    Q.     E   
---------------|----------------|--4g5------------|--5----3------2--|
--0------------|----------------|-----------------|-----------------|
--0------------|--0--------2----|-----------------|-----------------|
--2------------|--2-------------|-----------------|-----------------|
---------------|--0-------------|-----------------|-----------------|
--0------------|--3-------------|-----------------|-----------------|


  H.                Q    Q.     E     Q.     E  E  E     Q    Q.     E   
---------------|--2g3----2---------|------------5-----|-------0------2--|
--0------------|----------------2--|--3------------3--|--3--------------|
---------------|-------------------|------------------|-----------------|
---------------|-------------------|------------------|-----------------|
---------------|-------------------|------------------|-----------------|
---------------|-------------------|------------------|-----------------|


  H.              H        Q         H.              Q    Q.     E   
---------------|----------------|--4g5------------|--5----3------2--|
--0------------|----------------|-----------------|-----------------|
---------------|-----------2----|-----------------|-----------------|
---------------|----------------|-----------------|-----------------|
---------------|----------------|-----------------|-----------------|
---------------|----------------|-----------------|-----------------|


  H.                Q    Q.     E     Q.     E  E  E     Q    E  E  E  E   
---------------|--2g3----2---------|------------2--0--|-------------------|
--0------------|----------------2--|--3---------------|--3-------2--0--2--|
---------------|-------------------|------------------|-------------------|
---------------|-------------------|------------------|-------------------|
---------------|-------------------|------------------|-------------------|
---------------|-------------------|------------------|-------------------|


    H        Q       Q    E  E  E  E       H        Q     
-------------9----|-------------2--5s--|--10-------------|
--2g3-------------|-------2--3---------|-----------------|
------------------|--------------------|-----------------|
------------------|--------------------|-----------------|
------------------|--------------------|-----------------|
------------------|--------------------|-----------------|


   Q.      E   E   E      Q    H            T   T   E.  H         
------------------14--|--14-------------|--12h-14p-12------------|
--14------13--14------|-----------------|------------------------|
----------------------|-----------------|------------------------|
----------------------|-----------------|------------------------|
----------------------|-----------------|------------------------|
----------------------|-----------------|------------------------|


   Q.     E   E   E     Q    Q    E  E      Q    H           H.            
--10------9--10--14--|------------------|-----------------|---------------|
---------------------|--8----7----------|--10-------------|---------------|
---------------------|---------------9--|-----------------|---------------|
---------------------|------------------|-----------------|---------------|
---------------------|------------------|-----------------|---------------|
---------------------|------------------|-----------------|---------------|


   H        Q       Q.     E  E   E      Q    H            Q     Q.      E   
--10-------------|--9------8--9--14--|--14-------------|--15------------12--|
-----------------|-------------------|-----------------|--------15----------|
-----------------|-------------------|-----------------|--------------------|
-----------------|-------------------|-----------------|--------------------|
-----------------|-------------------|-----------------|--------------------|
-----------------|-------------------|-----------------|--------------------|


   Q    H            Q     Q     Q        Q    H            Q     Q    Q     
--14-------------|--15----------12----|--14-------------|--12----10----7----|
-----------------|--------15----------|-----------------|-------------------|
-----------------|--------------------|-----------------|-------------------|
-----------------|--------------------|-----------------|-------------------|
-----------------|--------------------|-----------------|-------------------|
-----------------|--------------------|-----------------|-------------------|


  Q    Q    Q       Q    Q.     E       Q    Q.     E     Q    H         
-----------------|--------------3--|--2g3----2---------|----------------|
--8----7----5----|--3--------------|----------------3--|--3-------------|
-----------------|-----------------|-------------------|----------------|
-----------------|-----------------|-------------------|----------------|
-----------------|-----------------|-------------------|----------------|
-----------------|-----------------|-------------------|----------------|


    Q    Q.     E     H.              H.              H.             
--2g3----2---------|---------------|---------------|---------------||
----------------3--|--3------------|---------------|---------------||
-------------------|---------------|---------------|---------------||
-------------------|---------------|---------------|---------------||
-------------------|---------------|---------------|---------------||
-------------------|---------------|---------------|---------------||




Guitar 2

     E  E  E  E  E  E     E  E  E  E  E  E     E  E  E  E  Q     
E||-----------2--------|--2-----5--------3--|--2-----------2----|
B||--------2-----2-----|--------------3-----|--------2----------|
G||-----------------2--|-----4-----4--------|-----2-----2-------|
D||-----4--------------|--------------------|--0----------------|
A||--5-----------------|--------------------|-------------------|
E||--------------------|--3-----------------|-------------------|


  E  E  H           E  E  E  E  E  E     E  E  E  E  E  E   
-----------------|-----------2--------|--------------------|
--------3--------|--------------2-----|--------0--3--0-----|
--------4--------|--------2--------2--|-----0-----------0--|
-----5-----------|-----4--------------|--------------------|
-----------------|--5-----------------|--------------------|
--5--------------|--------------------|--3-----------------|


  E  E  E  E  E  E     E  E  E  E  E  E     E  E  E  E  E  E   
-----------0--------|--------------------|--------------------|
--------0-----0-----|-----------2--------|-----------3--------|
-----0-----------0--|--------3-----3-----|--------2-----2-----|
--------------------|-----2-----------2--|-----4-----------4--|
--4-----------------|--------------------|--2-----------------|
--------------------|--2-----------------|--------------------|


                                                        ^     
  E  E  E  E  E  E     E  E  E  E  E  E     E  E  E  E  Q     
--------0--4--0-----|-----------3--------|-------------------|
--------------------|--------3-----3-----|-----------2-------|
-----4-----------4--|-----4--------------|--2-----2-----2----|
--2-----------------|--2--------------2--|-----2--------2----|
--------------------|--2-----------------|--0----------------|
--------------------|--------------------|-------------------|


  E  E  E  E  E  E     E  E  E  E  E  E     E  E  E  E  E  E   
-----------2--------|--------------------|-----------0--------|
--------2-----2-----|--------0--3--0-----|--------0-----0-----|
-----------------2--|-----0-----------0--|-----0-----------0--|
-----4--------------|--------------------|--------------------|
--5-----------------|--------------------|--4-----------------|
--------------------|--3-----------------|--------------------|


                                                       ^      
  E  E  E  E  E  E     E  E  E  E  E  E     E  E  Q    E  E   
--------------------|--------------------|--------4----------|
-----------2--------|-----------3--------|-------------2-----|
--------3-----3-----|--------2-----2-----|-----4-------2--2--|
-----2-----------2--|-----4-----------4--|--2----------------|
--------------------|--2-----------------|-------------0-----|
--2-----------------|--------------------|-------------------|


  E  E  E  E  E  E     E  E  E  E  Q       E  E  E  E  E  E   
-----------2--------|-------------------|--------------------|
--------3-----3-----|--------3--2-------|--------0--3-----0--|
-----------------2--|--------------2----|-----0--------0-----|
-----4--------------|-----4-------------|--------------------|
--5-----------------|--5----------------|--------------------|
--------------------|-------------------|--3-----------------|


             ^                                                
  E  E  Q    E  E     E  E  E  E  E  E     E  E  E  E  E  E   
-------------2-----|-----------2--------|-----------4--------|
-------------5-----|--------------3-----|--------5-----5-----|
--------3-------3--|--------2--------2--|-----4-----------4--|
-----2-------------|-----4--------------|--2-----------------|
-------------4-----|--2-----------------|--------------------|
--3----------------|--------------------|--------------------|


  E  E  E  E  Q       Q    E  E  E  E     E  E  E  E  E  E   
--------3----------|-------------------|-----------0--------|
-------------------|----------3--2-----|--------------------|
-----4-----4-------|----------------2--|--------2-----2-----|
--2----------------|-------2-----------|-----2-----------2--|
-------------------|--0----------------|--------------------|
-------------------|-------------------|--2-----------------|


                                                       ^      
  E  E  E  E  E  E     E  E  E  E  E  E     E  E  Q    E  E   
--------------------|--------------------|-------------0-----|
--------0--1--0-----|-----------3--------|-------------------|
-----------------2--|--------4-----4-----|--------3-------3--|
-----1--------------|-----4-----------4--|-----2-------------|
--2-----------------|--------------------|-------------------|
--------------------|--4-----------------|--3----------2-----|


  E  E  E  E  E  E     E  E  E  E  E  E     E  E  E  E  E  E   
--------------------|-----------0--------|--------------------|
-----------3--------|--------3-----3-----|-----------3--------|
--------2-----2-----|-----0-----------3--|--------2-----2-----|
-----4-----------4--|--------------------|-----4-----------4--|
--2-----------------|--1-----------------|--0-----------------|
--------------------|--------------------|--------------------|


                                            ^                             
  E  E  E  E  E  E     E  E  E  E  E  E     H.              H.            
-----------0--------|--------------------|--0------------|---------------|
--------0-----0-----|-----------3--------|--0------------|---------------|
-----0-----------0--|--------2-----2-----|--0------------|---------------|
--------------------|-----4-----------4--|--0------------|---------------|
--0-----------------|--0-----------------|--0------------|---------------|
--------------------|--------------------|---------------|---------------|


  H.              H.              H.              E  E  E  E  E  E   
---------------|---------------|---------------|-----------2--------|
---------------|---------------|---------------|--------2-----2-----|
---------------|---------------|---------------|-----------------2--|
---------------|---------------|---------------|-----4--------------|
---------------|---------------|---------------|--5-----------------|
---------------|---------------|---------------|--------------------|


  E  E  E  E  E  E     E  E  E  E  E  E     E  E  E  E  E  E   
--------------------|-----------0--------|--------------------|
--------0--3--0-----|--------0-----0-----|-----------2--------|
-----0-----------0--|-----0-----------0--|--------3-----3-----|
--------------------|--------------------|-----2-----------2--|
--------------------|--4-----------------|--------------------|
--3-----------------|--------------------|--2-----------------|


  E  E  E  E  E  E     E  E  E  E  E  E     E  E  E  E  E  E   
--------------------|--------0--4--0-----|-----------3--------|
-----------3--------|-----------------0--|--------3-----3-----|
--------2-----2-----|-----4--------------|-----4--------------|
-----4-----------4--|--2-----------------|--2--------------2--|
--2-----------------|--------------------|--2-----------------|
--------------------|--------------------|--------------------|


  E  E  E  E  E  E     E  E  E  E  E  E     E  E  E  E  E  E   
--------------------|-----------2--------|--------------------|
-----------2--------|--------------2-----|--------0--3--0-----|
--------2-----2-----|--------2--------2--|-----0-----------0--|
-----2-----------2--|-----4--------------|--------------------|
--0-----------------|--5-----------------|--------------------|
--------------------|--------------------|--3-----------------|


  E  E  E  E  E  E     E  E  E  E  E  E     E  E  E  E  E  E   
-----------0--------|--------------------|-----------2--------|
--------0-----0-----|-----------2--------|--------------3-----|
-----0-----------0--|--------3-----3-----|--------2--------2--|
--------------------|-----2-----------2--|-----4--------------|
--4-----------------|--------------------|--2-----------------|
--------------------|--2-----------------|--------------------|


  E  E  Q    E  E     E  E  E  E  E  E     E  E  E  E  E  E   
--------4----------|-----------2--------|-----------2--------|
-------------0-----|--------3-----3-----|--------------------|
-----4----------2--|-----2-----------2--|--------2--------2--|
--2----------------|--0-----------------|-----4--------4-----|
-------------------|--------------------|--5-----------------|
-------------------|--------------------|--------------------|


  E  E  E  E  E  E     E  E  E  E  E  E     E  E  E  E  E  E   
--------------------|-----------0--------|-----------2--------|
--------0--3--0-----|--------------------|--------------3-----|
-----0-----------0--|--------3--------3--|--------2--------2--|
--------------------|-----2--------4-----|-----4--------------|
--------------------|--------------------|--2-----------------|
--3-----------------|--3-----------------|--------------------|


  E  E  E  E  E  E     E  E  E  E  Q       Q    E  E  Q     
-----------4--------|-----------3-------|----------5-------|
--------5-----5-----|--------3----------|------------------|
-----4-----------4--|-----3-------------|-------2-----3----|
--2-----------------|--2----------------|-------2----------|
--------------------|-------------------|--0---------------|
--------------------|-------------------|------------------|


  E  E  E  E  E  E     E  E  E  E  E  E     E  E  E  E  E  E   
-----------0--------|-----------2--------|--------------------|
--------------------|--------------------|-----------3-----3--|
--------2-----2-----|--------2-----2-----|--------4-----4-----|
-----2-----------2--|-----4-----------4--|-----4--------------|
--------------------|--2-----------------|--------------------|
--2-----------------|--------------------|--4-----------------|


             ^                                              
  E  E  Q    Q       E  E  E  E  E  E     E  E  E  E  Q     
-------------0----|-----------2--------|-----------0-------|
------------------|--------------3-----|--------3----------|
--------3---------|--------2--------2--|-----0--------3----|
-----2------------|-----4--------------|-------------------|
------------------|--2-----------------|--1----------------|
--3----------2----|--------------------|-------------------|


                                                                 ^             
  E  E  E  E  E  E     E  E  E  E  E  E     E  E  E  E  E  E     H.            
--------------------|-----------3--------|-----------0--------|---------------|
-----------3--------|--------0-----0-----|--------------------|---------------|
--------2-----2-----|-----0-----------0--|--------2-----2-----|--4------------|
-----4-----------4--|--------------------|-----2-----------2--|--5------------|
--0-----------------|--0-----------------|--0-----------------|---------------|
--------------------|--------------------|--------------------|---------------|


  H.              E  E  E  E  E  E     H.              E  E  E  E  Q     
---------------|-----------3--2--3--|---------------|--------------3----|
---------------|--------3-----------|---------------|-----------0-------|
---------------|--------------------|---------------|--------0----------|
---------------|-----2--------------|---------------|-------------------|
---------------|--------------------|---------------|-----0-------------|
---------------|--------------------|---------------|-------------------|


                                                            ^              
  H.              E  E  E  E  E  E     E  E  E  E  E  E     H.             
---------------|--------------------|--------------------|---------------||
---------------|-----------3--------|-----------3--------|--3------------||
---------------|--------2--------2--|--------2--------2--|--2------------||
---------------|-----4--------4-----|-----4--------4-----|--4------------||
---------------|--5-----------------|--5-----------------|--5------------||
---------------|--------------------|--------------------|---------------||
Login or Register to remove this ad.

1 comment on Spirit

Not going to lie when I saw

Not going to lie when I saw Soul Eater in the title I was hoping it was going to be Malleus Maleficarum, but this was a really good song as well so I'm happy. :)