Ads

Seabed of St. Elles (Soul Blazer) Guitar Tab

Submitted: May 17, 2011 by BacardiBreezer

0
Download | Listen
Game: Soul Blazer
Composer(s): Yukihide Takekawa
Style: Alternate picking, Transcription

AutoScroll: Slow | Medium | Fast
Seabed of St. Elles
Soul Blazer
Composer: Yukihide Takekawa
Tabbed by Bacardibreezer
5/17/11

e|----------------------------------------------------|
B|----------------------------------------------------|
G|--5-------------------------------------------------|
D|-----8--7--5-----5~-------5--7--8--7-----8---5~-----|
A|--------------8-------------------------------------|
E|----------------------------------------------------|

e|------------------------------------------|
B|------------------------------------------|
G|--5--------------------5------------------|
D|-----8--7--5-----5~------8-7-8-7-8-5~-----|
A|--------------8---------------------------|
E|------------------------------------------|

e|----8-8-------8-8~-----13--12----------|
B|--6-----6-5-6------------------13~-----|
G|---------------------------------------|
D|---------------------------------------|
A|---------------------------------------|
E|---------------------------------------| x2

e|--------------------13-12--------------|
B|--13-11-13-13-11-13-------13-11-13~----|
G|---------------------------------------|
D|---------------------------------------|
A|---------------------------------------|
E|---------------------------------------| x2

e|-----12---10--------------------13---12-------10~---------12---10-------------|
B|------------------10~--------------------13----------------------------10~----|
G|--9-----------12---------------------------------------9-----------12---------|
D|---------------------------12-------------------------------------------------|
A|------------------------------------------------------------------------------|
E|------------------------------------------------------------------------------|

e|----------8---------------8~----|
B|--------------------------------|
G|--10-9-10-----10--9--10---------|
D|--------------------------------|
A|--------------------------------|
E|--------------------------------|
Login or Register to remove this ad.