Ads

A Night Without a Lover (Soul Blazer) Guitar Tab

Submitted: Nov 27, 2010 by BacardiBreezer

0
Download | Listen
Game: Soul Blazer
Composer(s): Yukihide Takekawa
Style: Alternate picking, Transcription

This song is also called Koibito no Inaiyoru (Lisa's Song)

AutoScroll: Slow | Medium | Fast
A Night Without a Lover
Soul Blazer
Composer: Yukihide Takekawa
Tabbed by: Bacardibreezer
11/16/10

e|-----------13-13---------------------13-13-------|
B|-----15----------15------------15----------15----|
G|--12----12------------------12----12-------------|
D|-------------------------------------------------|
A|-------------------------------------------------|
E|-------------------------------------------------|

e|-----------------13-15-12------------------------|
B|--------13-15-------------13-13----15------------|
G|--14-15-------------------------14---------------|
D|-------------------------------------------------|
A|-------------------------------------------------|
E|-------------------------------------------------| x2

e|-----17--17---17--15--15--13--12--10--10--10--12----13---|
B|--15-----------------------------------------------------|
G|---------------------------------------------------------|
D|---------------------------------------------------------|
A|---------------------------------------------------------|
E|---------------------------------------------------------|

e|--13----------------13-15----13-12-----------------------|
B|-----15-15-13-15-------------------13---15---------------|
G|---------------------------------------------------------|
D|---------------------------------------------------------|
A|---------------------------------------------------------|
E|---------------------------------------------------------|

e|-----------15-17--------------15---17-------------------------17------|
B|--15-17-18----------18-17-18----------18-----------18-17-18-----------|
G|------------------------------------------19--------------------------|
D|----------------------------------------------------------------------|
A|----------------------------------------------------------------------|
E|----------------------------------------------------------------------|

e|-----------15-17--------------15---17---------------------------------|
B|--15-17-18-----------18-17-18----------18-----18-17-18--17--15--------|
G|------------------------------------------19--------------------------|
D|----------------------------------------------------------------------|
A|----------------------------------------------------------------------|
E|----------------------------------------------------------------------|

e|--------------13--15--13--12--13---12----------------|
B|----------15----------------------------15-----------|
G|--14--15---------------------------------------------|
D|-----------------------------------------------------|
A|-----------------------------------------------------|
E|-----------------------------------------------------|
Login or Register to remove this ad.