Ads

Mountain of Souls (Soul Blazer) Guitar Tab

Submitted: Dec 07, 2010 by BacardiBreezer

0
Download | Listen
Game: Soul Blazer
Composer(s): Yukihide Takekawa
Style: Alternate picking, Transcription

This song is also called Ice Field of Laynole

AutoScroll: Slow | Medium | Fast
Mountain of Souls/Ice Field of Laynole
Soul Blazer
Composer: Yukihide Takekawa
Tabbed by: Bacardibreezer
12/7/10

e|----------------------------------------------------------------------|
B|----------------------------------------------------------------------|
G|----------------------------------------------------------------------|
D|--7s8----------------7s8------10--8--11s12--10--8--10--12-------------|
A|-------10--8--10----------10-------------------------------10---------|
E|----------------------------------------------------------------------|x2

e|----------------------|	|----------------------|
B|----------------------|	|----------------------|
G|------------------7---|	|----------------------|
D|-------8-----10-------|	|---10---9----8--------|
A|--10------------------|	|------------------10--|
E|----------------------|x2	|----------------------| x2

e|---------------------------------|	|--------------------------------|
B|---------------------------------|	|-----------11----13-12-11-------|
G|-----------10----12-11-10--------|	|--10-13-10----10----------13-10-|
D|--10-13-10----10----------13-10--|	|--------------------------------|
A|---------------------------------|	|--------------------------------|
E|---------------------------------|x2	|--------------------------------| x2

e|----------------------------------------------------------------------|
B|----------------------------------------------------------------------|
G|----------------------------------------------------------------------|
D|--12-12-12-12-12-12-12-12-12--10------12-12-12-12-12-12-12-12-12--10--|
A|----------------------------------------------------------------------|
E|----------------------------------------------------------------------|

e|----------------------------------------------------------------------|
B|----------------------------------------------------------------------|
G|----------------------------------------------------------------------|
D|--12-12-12-12-12-12-12-12-12--11--10--9--8--7--6--5--4--3--2--1-------|
A|----------------------------------------------------------------------|
E|----------------------------------------------------------------------|

Login or Register to remove this ad.