Ads

Lonely Town (Soul Blazer) Guitar Tab

Submitted: May 17, 2011 by BacardiBreezer

0
Download | Listen
Game: Soul Blazer
Composer(s): Yukihide Takekawa
Style: 2 or more instruments, Alternate picking, Transcription

AutoScroll: Slow | Medium | Fast
Lonely Town
Soul Blazer
Composer: Yukihide Takekawa
Tabbed by: Bacardibreezer
5/17/11

Guitar 1 (Flute and Choir)

e|--------------------------------------------------|
B|--------------------------------------------------|
G|--9-7------------7--------------------------------|
D|------10-9-10------10-9-7----10-9-7-7--6--7--7----|
A|--------------------------------------------------|
E|--------------------------------------------------|

e|--13--12-13-10-8-10-------12--10-12----------------10--8-10-7----7-12----17----------------------|
B|--------------------8~--------------13-12-13------------------10------------17-15----------------|
G|---------------------------------------------10~----------------------------------17-16-14--14~--|
D|-------------------------------------------------------------------------------------------------|
A|-------------------------------------------------------------------------------------------------|
E|-------------------------------------------------------------------------------------------------|

e|------12--13----------10--12------------------------------------------|
B|--10------------------------------------------------------------------|
G|------------------12------------10--------------------------4---------|
D|-------------------------------------10-----12-10-9-7----6-----7------|
A|----------------------------------------------------------------------|
E|----------------------------------------------------------------------|

e|---------8--10~------10--8~-----------13--11-15-13-11-10--11--11-----|
B|------6-----------------------15--13---------------------------------|
G|--8---------------8--------------------------------------------------|
D|---------------------------------------------------------------------|
A|---------------------------------------------------------------------|
E|---------------------------------------------------------------------|

Guitar 2 (Strings) - comes in at :05

e|--------------15----------------13---------------------------|
B|-----15----12----------13----10----------12----9-12----13~---|
G|--14----14----------12----12----------10----10---------------|
D|-------------------------------------------------------------|
A|-------------------------------------------------------------|
E|-------------------------------------------------------------|

e|-----------------------------------------------------------------------------------|
B|--13---15--13--12--10--12~----13--12--10------10~----12--10--15--13----12--15--13~-|
G|------------------------------------------12---------------------------------------|
D|-----------------------------------------------------------------------------------|
A|-----------------------------------------------------------------------------------|
E|-----------------------------------------------------------------------------------|

e|-------15-16~----------13-15~-------11----13-11--------11--------------------------|
B|--13--------------------------------------------15-13-----15-13-13--12--13--13-----|
G|------------------15------------13-------------------------------------------------|
D|-----------------------------------------------------------------------------------|
A|-----------------------------------------------------------------------------------|
E|-----------------------------------------------------------------------------------|


Login or Register to remove this ad.