Ads

Dazzling Space (Soul Blazer) Guitar Tab

Submitted: Nov 30, 2010 by BacardiBreezer

0
Download | Listen
Game: Soul Blazer
Composer(s): Yukihide Takekawa
Style: Alternate picking, Transcription

This song is also called World of Evil

AutoScroll: Slow | Medium | Fast
Dazzling Space (World of Evil)
Soul Blazer
Composer: Yukihide Takekawa
Tabbed by: Bacardibreezer
11/29/10

e|-------------------------17-------19-17----17-----|------------12---------------------|
B|--------17-18--17-20--18-----20---------20--------|--12--13-15----15--13-12-----------|
G|--17-19---------------------------------------17--|-----------------------------14----|
D|--------------------------------------------------|--------------------------14-------|
A|--------------------------------------------------|-----------------------------------|
E|--------------------------------------------------|-----------------------------------|

e|-----------------------------------------------------------------------------------12--14-|
B|---------------------------------------------------------------------------13--15---------|
G|-------------9------9--10--9-----------------------------------13--12--13-----------------|
D|--9--10--12-----12------------12--10--9--10--12--10---------------------------------------|
A|-----------------------------------------------------13--11-------------------------------|
E|------------------------------------------------------------------------------------------|

e|---------------------|-------------------------|---------------------|-----------------------------|
B|--13-13-11--11-10-8--|--16-16-15-13--13-10-8---|--13-13-11--11-10-8--|-----------------------------|
G|---------------------|-------------------------|---------------------|--12-15-15--15-15--15-15-15--|
D|---------------------|-------------------------|---------------------|-----------------------------|
A|---------------------|-------------------------|---------------------|-----------------------------|
E|---------------------|-------------------------|---------------------|-----------------------------|

e|--13-13-11--11-10-8--|--16--16-15--13--13-11-10-|--13-13-11--11-10-8--|----------------------------|
B|---------------------|--------------------------|---------------------|----------------------------|
G|---------------------|--------------------------|---------------------|--17-20-17--17-17--17-17-17-|
D|---------------------|--------------------------|---------------------|----------------------------|
A|---------------------|--------------------------|---------------------|----------------------------|
E|---------------------|--------------------------|---------------------|----------------------------|

e|----------------12---14-----|
B|-------13---15--------------|
G|--15------------------------|
D|----------------------------|
A|----------------------------|
E|----------------------------|

e|--15--13p11p9------15--13p11p9------14--12p10p8------14--12p10p8------15--13p11p9-----15--13p11p9-----14--12p10p8----|
B|--------------9----------------9----------------8----------------8----------------9---------------9---------------8--|
G|---------------------------------------------------------------------------------------------------------------------|
D|---------------------------------------------------------------------------------------------------------------------|
A|---------------------------------------------------------------------------------------------------------------------|
E|---------------------------------------------------------------------------------------------------------------------|

e|----------------------------|		|-----------11-----------12----|
B|-----------16-----------17--|		|--------11-----------12-------|
G|--------15-----------16-----|		|-----11-----------12----------|
D|-----16-----------17--------|		|--10-----------11-------------|
A|--15-----------16-----------|		|------------------------------|
E|----------------------------|	x2  OR	|------------------------------| x2

Login or Register to remove this ad.