Ads

Goodbye, My Friend (Sora no Otoshimono) Guitar Tab

Submitted: Apr 08, 2014 by max

5
Average: 5 (7 votes)
Download | Listen
Game: Sora no Otoshimono
Composer(s): Motoyoshi Iwasaki
Style: Arrangement, Fingerstyle

AutoScroll: Slow | Medium | Fast
                Sora no Otoshimono - Kronos/Goodbye my friend                   
tabbed: 07.04.2014 (original key is 12 frets more :3 but i hope you will enjoy)
tabber: Max Weber
Spur 1
     Q    E  E  Q    Q       Q    Q    Q    Q       Q    E  E  Q    Q     
E||-----------------------|----------------------|-----------------------|
B||-----------------------|------------0---------|-------------0---------|
G||-------------0---------|-----------------2----|--0----0--2--0----0----|
D||-------2--4-------2----|--4---------4---------|--2----2--4-------2----|
A||-------------2---------|-------2--------------|-----------------------|
E||--0--------------------|--2-------------------|--3--------------------|


  Q    Q    Q    Q       Q    E  E  Q    Q       Q    Q    Q    Q     
------------0---------|-----------------------|------------0---------|
--0---------1----3----|--1-------0--1---------|--0---------1----3----|
--1--------------4----|--2----2----------2----|--1--------------4----|
-------2--------------|-------------2---------|-------2--------------|
----------------------|--0--------------------|--2-------------------|
--4-------------------|-----------------------|----------------------|


  Q    E  E  Q    Q       Q    Q    Q    Q       Q    Q    Q    Q     
-------------0---------|--0---------5----3----|--1----0--------------|
--1----1--3--1----1----|--2---------6----5----|--3----1----3----1----|
--2----2--4-------2----|-------2--------------|------------4----2----|
-----------------------|----------------------|--0-------------------|
--3--------------------|--4-------------------|----------------------|
-----------------------|----------------------|----------------------|


  H        Q    Q       Q    Q    Q    Q       Q    Q    Q    Q     
---------------------|--0-------------------|----------------------|
--0------------------|--1----3----1----0----|----------------------|
--2------------------|-------4----2----0----|--2-------------------|
--2--------6----2----|----------------------|--4----0--------------|
---------------------|--0-------------------|------------3----2----|
--0--------4---------|------------3---------|--2-------------------|


  Q    Q    Q    Q       Q    Q    H           H        Q    E  E   
----------------------|---------------------|----------------------|
--3----1----0---------|--1---------3--------|----------------------|
-----------------2----|--2------------------|--4-------------5--4--|
--3-------------------|--3------------------|--4-------------------|
----------------------|---------------------|--6-------------------|
--1-------------------|--1----1-------------|--7--------7----------|


  E  E  E  E  E  E  E  E     Q    E  E  Q    Q       Q    Q    Q    Q     
-----------2--5-----2--5--|--7--------------------|----------------------|
--0-----4--------4--------|-----------------------|------------0---------|
--2--2--------------------|-------------0---------|-----------------2----|
--------------------------|-------2--4-------2----|--4-------------------|
--0-----------2-----------|-------------2---------|-------2--------------|
--------------------------|--0--------------------|--2-------------------|


  Q    E  E  Q    Q       Q    Q    Q    Q       Q    E  E  Q    Q     
-----------------------|------------0---------|-----------------------|
-------------0---------|--0---------1----3----|--1-------0--1---------|
--0----0--2--0----0----|-----------------4----|--2----2----------2----|
--2----2--4-------2----|--6----2--------------|-------------2---------|
-----------------------|----------------------|--0--------------------|
--3--------------------|--4-------------------|-----------------------|


  Q    Q    Q    Q       Q    E  E  Q    Q       Q    Q    Q    Q     
------------0---------|-------------0---------|--0---------5----3----|
--0---------1----3----|--1----1--3--1----1----|--2---------6----5----|
--1--------------4----|--2----2--4-------2----|-------2--------------|
-------2--------------|-----------------------|----------------------|
--2-------------------|--3--------------------|--4-------------------|
----------------------|-----------------------|----------------------|


  Q    Q    Q    Q       H        Q    Q       Q    Q    Q    Q     
----------------------|---------------------|--0-------------------|
--6----5----0---------|--0------------------|--1----3----1----0----|
--7----5----7----5----|--2------------------|-------4----2----0----|
--0--------------7----|--2--------6----2----|----------------------|
----------------------|---------------------|--0-------------------|
----------------------|--0--------4---------|------------3---------|


  Q    Q    Q    Q       Q    Q    Q    Q       Q    Q    H         
----------------------|----------------------|---------------------|
----------------------|--3----1----0---------|--1---------3--------|
--2-------------------|-----------------2----|--2---------1--------|
--4----0--------------|--3-------------------|--2---------2--------|
------------3----2----|----------------------|---------------------|
--2-------------------|--1-------------------|--0----0-------------|


  E  E  Q    Q    E  E     E  E  E  E  E  E  E  E     E  E  E  E  E  E  Q     
------------------------|--------------------------|-----------------0--5----|
--1--0------------------|--------------------------|--------1-----1-----5----|
--2-----2---------------|-----------------------2--|-----2--2--2--------6----|
--2-----2------------2--|-----------2--------2-----|--2--2--------------7----|
--0----------0----3-----|--0--0--3--0--3--3--0-----|--------0-----------0----|
------------------------|--------------------------|-------------------------|


  W                   Q    E  E  Q    Q       Q    Q    H         
--L----------------|----------0--1---------|---------------------|
--L----------------|-------3----------3----|---------------------|
--L----------------|-------------2---------|--2------------------|
--L----------------|-----------------------|--2------------------|
--L----------------|--0--------------------|--4---------4--------|
-------------------|-----------------------|--0----0----0--------|


  Q    E  E  Q    Q       H        H           Q    E  E  Q    Q     
-------1--3--5----1----|--5-----------------|-------3--5--6---------|
-------3--5-------3----|--7--------3--------|------------------8----|
-----------------------|--7-----------------|-------------7----7----|
-----------------------|--------------------|-----------------------|
-----------------------|--------------------|-----------------------|
--1----------1---------|-----------2--------|--3----------6---------|


  Q    Q    H           Q    Q    Q    Q       H        H         
------------1--------|----------------------|--------------------|
--0---------0--------|--4----3--------------|--------------------|
--7---------0--------|--5---------5----3----|--0-----------------|
--5------------------|--5---------5---------|--7--------4--------|
---------------------|--3---------3---------|--------------------|
--7----7-------------|----------------------|-----------2--------|


  Q    Q    Q    Q       Q    Q    Q    Q       Q    Q    Q    Q     
----------------------|----------------------|----------------------|
--3----1--------------|----------------------|--1-------------------|
--3----2----3----2----|--0-------------------|--0----3----2----0----|
------------5----3----|--1----3----1----0----|--1-------------------|
----------------------|--1-------------------|----------------------|
--3---------1---------|----------------------|----------------------|


  H        H           H        Q    E  E     E  E  E  E  E  E   E  E   
--------------------|----------------------|-----------------2--10-----|
-----------1--------|--3-------------------|--------------3------------|
--3-----------------|--2----------------0--|--2--------2------------7--|
--5-----------------|--5-------------2-----|--4--0--4------------------|
--6-----------------|--5--------5----------|--5------------------------|
--------------------|----------------------|---------------------------|


  Q    E  E  Q    Q       Q    Q    Q    Q       Q    E  E  Q    Q     
-----------------------|----------------------|-----------------------|
-----------------------|------------0---------|-------------0---------|
-------------0---------|-----------------2----|--0----0--2--0----0----|
-------2--4-------2----|--4---------4---------|--2----2--4-------2----|
-------------2---------|-------2--------------|-----------------------|
--0--------------------|--2-------------------|--3--------------------|


  Q    Q    Q    Q       Q    E  E  Q    Q       Q    Q    Q    Q     
------------0---------|-----------------------|------------0---------|
--0---------1----3----|--1-------0--1---------|--0---------1----3----|
--1--------------4----|--2----2----------2----|--1--------------4----|
--2----2--------------|--2----------2---------|-------2--------------|
----------------------|--0--------------------|--2-------------------|
--4-------------------|-----------------------|----------------------|


  Q    E  E  Q    Q       Q    Q    Q    Q       Q    Q    Q    Q     
-------------0---------|--0---------5----3----|--1----0--------------|
--1----1--3--1----1----|--2---------6----5----|--3----1----3----1----|
--2----2--4-------2----|-------2--------------|------------4----2----|
-----------------------|----------------------|--0-------------------|
--3--------------------|--4-------------------|----------------------|
-----------------------|----------------------|----------------------|


  H        Q    Q       Q    Q    Q    Q       Q    Q    Q    Q     
---------------------|--0-------------------|----------------------|
--0------------------|--1----3----1----0----|----------------------|
--2------------------|-------4----2----0----|--2-------------------|
--2--------6----2----|----------------------|--4----0--------------|
---------------------|--0-------------------|------------3----2----|
--0--------4---------|------------3---------|--2-------------------|


  Q    Q    Q    Q       Q    Q    Q    Q       E  E  Q    Q    E  E   
----------------------|----------------------|------------------------|
--3----1----0---------|--1---------3---------|--1--0------------------|
-----------------2----|--2---------1---------|--------2---------------|
--3-------------------|--2---------2---------|--2-----2------------2--|
----------------------|----------------------|--0----------0----3-----|
--1-------------------|--0----0---------0----|------------------------|


  Q    E  E  Q    E  E     Q    Q    Q    Q       H        Q    Q     
------------------------|--1----0--------------|---------------------|
------------------------|--3---------3----1----|--0------------------|
---------------------2--|--2-------------------|--2--------1---------|
----------2-------2-----|----------------------|--2-------------2----|
--0----3----------------|----------------------|---------------------|
-------------5----------|----------------------|--0--------4---------|


  Q    Q    Q    Q       Q    Q    Q    Q       Q    Q    Q    Q     
--0-------------------|----------------------|----------------------|
--1----3----1----0----|----------------------|--3----1----0---------|
-------4----2----0----|--2-------------------|-----------------2----|
----------------------|--4----0--------------|--3-------------------|
--0-------------------|------------3----2----|----------------------|
------------3---------|--2-------------------|--1-------------------|


  H        H           H        H           H        H         
--------------------|--------------------|--------------------|
--1-----------------|--3-----------------|--1--------0--------|
--2-----------------|--1-----------------|--2-----------------|
--2-----------------|--2-----------------|--2--------0--------|
--------------------|--------------------|--------------------|
--0--------0--------|--0--------0--------|--------------------|


  W                  
-------------------||
-------------------||
--2----------------||
--2----------------||
--3----------------||
--5----------------||




Duration Legend
---------------
W - whole
H - half
Q - quarter
E - 8th
S - 16th
T - 32nd
X - 64th
. - note dotted
|-n-|  - n-tuplets
Login or Register to remove this ad.

2 comments on Goodbye, My Friend

I never thought I'd see

I never thought I'd see someone arrange a song from this show

yeah sadly :/ it has some

yeah sadly :/ it has some really wonderfull osts i hope to see more of them or i will arrange some if i have time for them