Ads

Sootopolis City (Pokémon Ruby & Sapphire) Guitar Tab

Submitted: May 30, 2020 by H.F. (Last updated: Jun 10, 2020)

5
Average: 5 (1 vote)
Download | Listen
Game: Pokémon Ruby & Sapphire
Composer(s): Junichi Masuda, Go Ichinose, Morikazu Aold
Style: Arrangement, Fingerstyle, Natural harmonics
Series: Pokemon

AutoScroll: Slow | Medium | Fast

GP5 or MIDI also available below :)
gp5:

https://drive.google.com/file/d/1QHfspA90UHX1ztE7BL9XuKjLeiTo7_gC/view?usp=sharing

midi:

https://drive.google.com/file/d/1duJAq2ZwyeEz6n2hwrA9vBXXQnJn4AET/view?usp=sharing

Title: Sootopolis City
SubTitle: Pokémon Ruby/Sapphire/Emerald
Music: Go Ichinose, Morikazu Aoki, Junichi Masuda
Tabber: H.F.

Tempo = 136

Legend
h - hammer on/pull off
s - slide

E ||-7-------------------|----------------------|--5-----------7-------|
B ||-------------7-------|--9-------------------|--5--------------10---|
G ||o7-------------------|--9-------------------|-----6----------------|
D ||o---9--------9-------|--------9-------------|----------------------|
A ||---------------------|----------------------|----------------------|
E ||-7--------7----------|--7--7--------7-------|--7--------7----------|


----------------------------------------------------------|
--10----------------------10h---7-----9-------------------|
--9-----------------7-------------------------------------|
----------------------------------------------------------|
----------------------------------------------------------|
--7--------7----------------------------------------------|


--7-------------------|----------------------|--5-----------7h-5----|
--------------7-------|--9-------------------|--5-------------------|
--7-------------------|--9-------------------|-----6--------6-------|
-----9--------9-------|--------9-------------|----------------------|
----------------------|----------------------|----------------------|
--7--------7----------|--7--7--------7-------|--7--------7----------|


--5--------7-------------------|--2-----------9h-7----|
--------------------------3----|-----3----------------|
-----------7-----------4-------|-----4----------------|
--------------------4----------|----------------------|
-------------------------------|--2-------------------|
--7----------------------------|-----------7----------|


----------------------------------------------------------|
--7-----------------------------------------------3-------|
-----------6--------------------------------4-------------|
-----------8--------------------------4-------------------|
-----------------------------1----------------------------|
--6-------------------------------------------------------|


--2--------0-----2----|--0-----------0-------|--0--------2--0-------|
--3-----------4-------|-----3-----0-----0----|--0--------------0----|
-----2----------------|--------1-------------|-----0----------------|
----------------------|----------------------|----------------------|
--0--------0----------|----------------------|----------------------|
----------------------|--4-----------4-------|--3--------3----------|


--------------------------------------7s-------2----------|
--------3h----2-----3--------7----------------------------|
--2-------------------------------------------------------|
----------------------------------------------------------|
----------------------------------------------------------|
--2-------------------------------------------------------|


-----------0----------|-------------------------------|--2-----------9--7----|
--3-----------3--0----|--3--------2--------------3----|-----3-----7----------|
--1-------------------|-----------3--------3h-4-------|-----4----------------|
----------------------|-------------------------------|----------------------|
----------------------|-------------------------------|--2-------------------|
--1--1-----1----------|--2----------------------------|--------------7-------|


----------------------------------------------------------|
--7-----------------------------------------------3-------|
-----------6--------------------------------4-------------|
-----------8--------------------------4-------------------|
-----------------------------1----------------------------|
--6-------------------------------------------------------|


--2--------0-----2----|--0--------------0----|--3--------5--3--0----|
-----3--------4-------|--------0-----0-------|--0-------------------|
-----2----------------|-----3-----3----------|----------------------|
----------------------|----------------------|----------------------|
--0--------0----------|----------------------|----------------------|
----------------------|--4-----------4-------|--3--3--------3-------|


--2-----2--6--7s-10---|--9--------------7----|-----7--9----|
-----3----------------|--9-----------9-------|--11-9--11---|
--2-------------------|----------------------|-------------|
--------------0-------|----------------------|-------------|
----------------------|--8--8-----8----------|--9--7-------|
--2-------------------|----------------------|--------9----|


----------------------------------------------------------|
--7-----------------------------------------8h----7-------|
--7-----------------------------------7-------------------|
--0--------0-----------------0----------------------------|
----------------------------------------------------------|
----------------------------------------------------------|


-----------------7----|
--10----------10------|
--9-------------------|
----------------------|
----------------------|
--9--9-----9----------|


--8-----------------------------------8h----7-------------|--7--5-------|
--------------------------------------------------10------|-----5--7----|
--9--------------------------9----------------------------|--8----------|
----------------------------------------------------------|-------------|
----------------------------------------------------------|-----4--6----|
--8--------8----------------------------------------------|--7----------|


----------------------------------------------------------|
--8-----------------------------------------10h---8-------|
--6-------------------------------------------------------|
----------------------------------------------------------|
----------------------------------------------------------|
--6--------6-----------------6----------------------------|


-----------10-------------------------------------------------------------------
--7-----------------------------------------------------------------------------
--7-----------------------------------------------------------------------2-----
--------------------------------------------------------------------------------
--0-----------------0-----------------------------------0-----------------------
--------------------------------------------------------------------------------


------------------2-------------|--0-------------------|--------------0-------|
------3-------------------------|--0-----------0--3----|--2-----3-------------|
--------------------------------|----------------------|-----2-----4--6-------|
--------------------------------|----------------------|----------------------|
--------------------------------|----------------------|--0-------------------|
--------------------------------|--4--4-----4----------|--------3-----0-------|


----------------------------------------------------------|
----------------------------------------------------------|
--------------------------------------------0-------------|
--4-----------------------------------------------4-------|
--5-----------------------------------5-------------------|
--5--------5-----------------5----------------------------|


----------------------------------------------------------|
--------------------------------------------------0-------|
--2-----------------------------------2-------------------|
----------------------------------------------------------|
--4-----------------------------------4-------------------|
--5--------5-----------------5----------------------------|


--------------------------------------------------0-------|--2--0-------|
--1-----------------------------------1h----3-------------|--------4----|
----------------------------------------------------------|-------------|
--2-------------------------------------------------------|--1--2--4----|
--3--------3-----------------3----------------------------|--2--4--6----|
----------------------------------------------------------|-------------|


-----------------------------5----------------------------|
--8-----------------------------------8h----7-----5-------|
--6-------------------------------------------------------|
----------------------------------------------------------|
----------------------------------------------------------|
--6--------6-----------------6----------------------------|


--------------------------------2-------|--0-----------0-------|
-----7--------------------3-------------|--0--------0-----0----|
--7-----------------------2-------------|----------------------|
----------------------------------------|----------------------|
--0-----0-----------0-------------------|----------------------|
----------------------------------------|--4--4-----4----------|


--------------------0----------|--2--4--6---|||
--2--------3--------2----------|--2--3--5---|||
--2--------4-------------------|-----------o|||
-------------------------------|-----------o|||
--0-----------------0----------|------------|||
-----------------------4--3----|--2--4--6---|||
Login or Register to remove this ad.

1 comment on Sootopolis City

Beautiful

5

I rarely sign in, but today I played this, clicked sign in, it brought me all the way back to the home page, and I renavigated back to this page just to give you a 5 star and comment for this tab. Quality work brother