Star Light Zone (Sonic the Hedgehog) Bass Tab

Submitted: Nov 21, 2010 by soundsandstuff

0
Download | Listen
Game: Sonic the Hedgehog
Composer(s): Masato Nakamura
Style: Alternate picking, Transcription
Series: Sonic the Hedgehog

AutoScroll: Slow | Medium | Fast
Sonic the Hedgehog 1 - Star Light Zone
Platform: SEGA Genesis/Mega Drive
Developer: SEGA
Composed by: Masato Nakamura

Bass Guitar Tab Created By: soundsandstuff www.youtube.com/user/soundsandstuff
Completed on 10/26/09


Read: Before playing, tune the fourth string on your bass guitar to standard E.

=========================================================== A

G|-------------------------------------|
D|-------------------------------------|
A|--3----3--3----3-3-1----1--0----0-0--|
E|-------------------------------------|


G|---------------------------------------------------|
D|---------------------------------------------------|
A|--5----5--5-5-4----4--4-4-3----3--3-3-2----2--2-2--|
E|---------------------------------------------------|


G|-------------------------------------|
D|-------------------------------------|
A|-------------------2----2--2----2-2--|
E|--3----3--3----3-3-------------------|


G|-------------------------------------|
D|-------------------------------------|
A|--3----3--3----3-3-5----5-------5----|
E|---------------------------3------3--|

========                            ======================

G|-------------------------------------|
D|-------------------------------------|
A|--3----3--3----3-3-1----1--0----0-0--|
E|-------------------------------------|


G|---------------------------------------------------|
D|---------------------------------------------------|
A|--5----5--5-5-4----4--4-4-3----3--3-3-2----2--2-2--|
E|---------------------------------------------------|


G|-------------------------------------|
D|--------------------------------0----|
A|-------------------2----2--2------2--|
E|--3----3--3----3-3-------------------|

===================================================================== B

G|-------------------------------------|
D|-------------------------------------|
A|--3----3--3------3-5----5--5----0-5--|
E|---------------3---------------------|


G|--------------------------------0----|
D|-----------------2-3----3--3------3--|
A|--7----7--7----3---------------------|
E|-------------------------------------|


G|-------------------------------------|
D|-------------------------------------|
A|--3----3--3------3-5----5--5----0-5--|
E|---------------3---------------------|


G|-------------------0-----------------|
D|---------------2-3-------------------|
A|--7----7--7--------------------------|
E|----------------------3--------------|

====================================================================================== Repeat 

Notes:

- Thank you for playing!
Login or Register to remove this ad.