Ads

Special Stage (Sonic the Hedgehog) Guitar Tab

Submitted: Apr 25, 2010 by diralark

5
Average: 5 (4 votes)
Download | Listen
Game: Sonic the Hedgehog
Composer(s): Masato Nakamura
Style: Arrangement, Fingerstyle, Transcription
Series: Sonic the Hedgehog

AutoScroll: Slow | Medium | Fast
                               Special Stage                                   

		    Sonic The Hedgehog  (16 bits version)

Music by Masato Nakamura >> Sequenced by Dave Morley >> tab by Diralark


Guitar (Capo 3)

                      ^                  ^                                  
      E  E  Q    Q    E  E     Q    Q    E  E  Q       Q    Q    Q    Q     
E||---0--0-------1----3-----|-------0----0----------|-------0--------------|
B||---------1---------3--3--|--0---------1--1-------|--1--------------1----|
G||*-------------2----------|-------0----------2----|----------------------|
D||*--3-----L---------2-----|--L---------0-----L----|--3----2----0----2----|
A||-------------------------|-----------------------|-------3---------3----|
E||-------------------------|-----------------------|----------------------|


  ^               ^                                 v                    
  E  E  Q    Q    E  E     Q    Q     Q.      E     Q    H.              
--0--0-------1----3-----|-------0----------------|---------------------||
--------1---------3--3--|--0----------1----------|--3----1-------------||
-------------2----------|-------0----------------|--------------------*||
--3-----L---------2-----|--L---------(0)------2--|--0-----------------*||
------------------------|-------------3-------L--|-------3-------------||
------------------------|------------------------|---------------------||


                                        ^                    ^                 
  E  E  E  E  E  E  E  E     E  E  Q    E  E  E  E     E  E  E  E  E  E  Q     
--------------0-----1-----|--0-----1----3-----------|--0----------------------|
--------3-----3--3--------|-------------0--0--------|--------0--0-------------|
--2--2--------------2--2--|-------------------0--0--|--------------0--0-------|
--------3--3--------------|--3--3--3----------------|--2--2--------------2----|
--1-----------L-----1-----|-----L-------3--------L--|--------3--------L-------|
--------------------------|-------------------------|-------------------------|


                    ^                   ^                                 
  E  E  E  E  E  E  E  E     E  E  Q    E  E  E  E     Q    H.            
--------------0-----1-----|--0-----1----3-----------|--5----3------------|
--------3-----3--3--------|-------------1--1--------|--------------------|
--2--2--------------2--2--|-------------------2--2--|--2-----------------|
--------3--3--------------|--3--3--3----------------|--------------------|
--1--------L--------1-----|-----L-------3--------L--|-------3------------|
--------------------------|-------------------------|--------------------|


  W                  
--L----------------||
-------------------||
-------------------||
-------------------||
--L----------------||
-------------------||




Duration Legend
---------------
W - whole
H - half
Q - quarter
E - 8th
. - note dotted
L - tied note
^ - brush up
v - brush down

Login or Register to remove this ad.