Marble Zone (SongeLeReveur Version) (Sonic the Hedgehog) Bass/Guitar Tab

Submitted: Jul 23, 2010 by ForestMarth

0
Download | Listen
Game: Sonic the Hedgehog
Composer(s): Masato Nakamura
Style: 2 or more instruments, Arrangement, Transcription
Series: Sonic the Hedgehog

AutoScroll: Slow | Medium | Fast
                       Sonic The Hedgehog - Marble Zone                         

Composed by : Masato Nakamura

Arranged by : Songe Le Rêveur

Tabbed by : ForestMarth

Platform : Sega Genesis (originally)


I'm sorry but rythm is not respected (here and in the Guitar Pro file).
Don't hesitate to take this tab and put it rythm ! :-)
Look at SongeLeReveur video to hear the rythm.


I dedicate this tab to the hat.
Without him, the (musically) crazy side of Songe can't be revealed =)
There isn't any reason to make fun of the hat !!!
Sometimes, I'd like the hat to be with me to help me in my transcriptions of Songe's arrangements...




Guitar



          
E||------------------------------------------------------------------
B||--8----8----8----8------5----5---------5------5----5---------5----
G||--7----7----7----7------5----5---------5------5----5---------5----
D||--6----6----6----6------5----5----5-----------5----5----5---------
A||--7----7----7----7------------------------------------------------
E||------------------------------------------------------------------


       
------------------------------------------------------------------
--5----5---------5------5----5---------5------5----5---------5----
--5----5---------5------5----5---------5------5----5---------5----
--5----5----5-----------5----5----5-----------3----3----3---------
------------------------------------------------------------------
------------------------------------------------------------------


       
------------------------------------------------------------------
--5----5---------5------5----5---------5------5----5---------5----
--5----5---------5------5----5---------5------5----5---------5----
--3----3----3-----------3----3----3-----------3----3----3---------
------------------------------------------------------------------
------------------------------------------------------------------


       
------------------------------------------------------------------
--3----3---------3------3----3---------3------3----3---------3----
--4----4---------4------4----4---------4------4----4---------4----
--3----3----3-----------3----3----3-----------3----3----3---------
------------------------------------------------------------------
------------------------------------------------------------------


       
------------------------------------------------------------------
--3----3---------3------3----3---------3------3----3---------3----
--4----4---------4------2----2---------2------2----2---------2----
--3----3----3-----------2----2----2-----------2----2----2---------
------------------------------------------------------------------
------------------------------------------------------------------


       
------------------------------------------------------------------
--6----6---------6------6----6---------6------5----5---------5----
--7----7---------7------7----7---------7------5----5---------5----
--7----7----7-----------6----6----6-----------5----5----5---------
------------------------------------------------------------------
------------------------------------------------------------------


       
------------------------------------------------------------------
--5----5---------5------5----5---------5------5----5---------5----
--5----5---------5------5----5---------5------5----5---------5----
--5----5----5-----------5----5----5-----------5----5----5---------
------------------------------------------------------------------
------------------------------------------------------------------


       
------------------------------------------------------------------
--5----5---------5------5----5---------5------5----5---------5----
--5----5---------5------5----5---------5------5----5---------5----
--3----3----3-----------3----3----3-----------3----3----3---------
------------------------------------------------------------------
------------------------------------------------------------------


       
------------------------------------------------------------------
--5----5---------5------6----6---------6------6----6---------6----
--5----5---------5------7----7---------7------7----7---------7----
--3----3----3-----------7----7----7-----------7----7----7---------
------------------------------------------------------------------
------------------------------------------------------------------


       
------------------------------------------------------------------
--6----6---------6------6----6---------6------5----5---------5----
--7----7---------7------7----7---------7------5----5---------5----
--6----6----6-----------6----6----6-----------5----5----5---------
------------------------------------------------------------------
------------------------------------------------------------------


       
------------------------------------------------------------------
--5----5---------5------5----5---------5------5----5---------5----
--5----5---------5------5----5---------5------5----5---------5----
--5----5----5-----------5----5----5-----------5----5----5---------
------------------------------------------------------------------
------------------------------------------------------------------


      
--(5)-------------------3--------3--3--3--3----1--------1--1--1--1--
--(5)-------------------3--------3--3--3--3----1--------1--1--1--1--
---6--------------------4--------4--4--4--4----2--------2--2--2--2--
---7--------------------5--------5--5--5--5----3--------3--3--3--3--
---7--------------------5--------5--5--5--5----3--------3--3--3--3--
---5--------------------3--------3--3--3--3----1--------1--1--1--1--


     
--3--------3--3--3--3----(5)-------------------3--------3--3--3--3--
--3--------3--3--3--3----(5)-------------------3--------3--3--3--3--
--4--------4--4--4--4-----6--------------------4--------4--4--4--4--
--5--------5--5--5--5-----7--------------------5--------5--5--5--5--
--5--------5--5--5--5-----7--------------------5--------5--5--5--5--
--3--------3--3--3--3-----5--------------------3--------3--3--3--3--


       
--1--------1--1--1--1----3--------3--3--3--3---------------------------
--1--------1--1--1--1----3--------3--3--3--3---------------------------
--2--------2--2--2--2----4--------4--4--4--4---------------------------
--3--------3--3--3--3----5--------5--5--5--5---------------------------
--3--------3--3--3--3----5--------5--5--5--5-----------------7----9----
--1--------1--1--1--1----3--------3--3--3--3----5g7----10--------------


        
------------------------------------------------------
------------------------------------------------------
------------------------------------------------10----
--------7----7g9----9------11g12----11----10----------
--10--------------------------------------------------
------------------------------------------------------


                                                              ^          
        
--------13----12----10--10-------------------5----------------3----3----
--10------------------------------------3-----------3---------3---------
-----------------------------------4---------------------4----4---------
------------------------------3-------------------------------3---------
------------------------------------------------------------------------
------------------------------------------------------------------------


            ^                                                        
       
------------3----3------------------------------------------------
--3---------3-----------3---------------------6--------------6----
-------4----2----------------2---------7----------------7---------
------------2---------------------7----------------6--------------
------------------------------------------------------------------
------------------------------------------------------------------


           
--11g12----11p----10----12------8h----10p----8----------
--------------------------------------------------12----
--------------------------------------------------------
--------------------------------------------------------
--------------------------------------------------------
--------------------------------------------------------


       
--8---------------------------------------------------8s----10----10g12----
-------10--------------------------5----5g6------6-------------------------
-------------9----5------5----7--------------------------------------------
---------------------------------------------------------------------------
---------------------------------------------------------------------------
---------------------------------------------------------------------------


                                                              ^     
       
--10---------------------------------------------------------------
------------------6----------------------------6--------------5----
-------------7-----------7--------------7-----------7---------5----
--------7---------------------7----6---------------------6----5----
-------------------------------------------------------------------
-------------------------------------------------------------------


      
---------8----5----------(5)-------------------3--------3--3--3--3--
-------------------------(5)-------------------3--------3--3--3--3--
--(5)---------------------6--------------------4--------4--4--4--4--
--------------------------7--------------------5--------5--5--5--5--
--------------------------7--------------------5--------5--5--5--5--
--------------------------5--------------------3--------3--3--3--3--


              
--1--------1--1--1--1----3--------3--3--3--3----(5)-----------------
--1--------1--1--1--1----3--------3--3--3--3----(5)-----------------
--2--------2--2--2--2----4--------4--4--4--4-----6------------------
--3--------3--3--3--3----5--------5--5--5--5-----7------------------
--3--------3--3--3--3----5--------5--5--5--5-----7------------------
--1--------1--1--1--1----3--------3--3--3--3-----5------------------


     
--3--------3--3--3--3----1--------1--1--1--1----3--------3--3--3--3--
--3--------3--3--3--3----1--------1--1--1--1----3--------3--3--3--3--
--4--------4--4--4--4----2--------2--2--2--2----4--------4--4--4--4--
--5--------5--5--5--5----3--------3--3--3--3----5--------5--5--5--5--
--5--------5--5--5--5----3--------3--3--3--3----5--------5--5--5--5--
--3--------3--3--3--3----1--------1--1--1--1----3--------3--3--3--3--


         
--(5)----(3)----(1)----(3)------(5)----(3)----(1)----(3)----
---5------3------1------3--------5------3------1------3-----
---6------4------2------4--------6------4------2------4-----
---7------5------3------5--------7------5------3------5-----
---7------5------3------5--------7------5------3------5-----
---5------3------1------3--------5------3------1------3-----


                                    ^                                 
       
-------------------5----------------8----7------5-------------------
------------(5)-----------5---------5----------------5--------------
-------5-----------------------5----5---------------------5---------
--5---------------------------------5-------------------------------
--------------------------------------------------------------------
--------------------------------------------------------------------


       
------------5-----------------------------------------------------
-----------------5-----------5----------------5-------------------
-------5----------------5--------------5-----------5--------------
--3-------------------------------3---------------------3---------
------------------------------------------------------------------
------------------------------------------------------------------


                             ^    ^                     ^          
       
------------------------3----4----3---------------------3---------
------------3----------------3----3---------------------3---------
-------4---------4-----------4----4----------------2--------------
--3--------------------------3----3-----------2-------------------
------------------------------------------------------------------
------------------------------------------------------------------


       
--------------------------------------------------------------------
------------6---------------------6-----------------------5----5----
-------7---------------------7---------------------(5)--------------
--7---------------------6---------------------5---------------------
--------------------------------------------------------------------
--------------------------------------------------------------------


                                                        ^          
       
-------7----5-------------------------------------------5---------
-----------------5----------------5---------------------5----5----
--5---------------------5--------------------------5--------------
-----------------------------5----------------3-------------------
------------------------------------------------------------------
------------------------------------------------------------------


           
-----------------------------------0------------------------------
-------5------------5-------------------6-----------6-------------
--5--------------5------------7----------------7------------------
------------3------------7----------------------------------------
------------------------------------------------------------------
------------------------------------------------------------------


            ^                                                       
       
------------7------------------------------------------8----7----
------------6----6-----------6-----------------------------------
-------7----------------7-------------------------5--------------
--6------------------------------------------5-------------------
-----------------------------------------------------------------
-----------------------------------------------------------------


                                                        ^          
       
--5-----------------------------------------------------0---------
-------5---------5----------------5---------------------6----6----
------------5----------------5---------------------7--------------
------------------------5---------------------7-------------------
------------------------------------------------------------------
------------------------------------------------------------------


                                   ^                                  
     
-----------------------------------7-----------5----5----5----5--5--
-------(6)-------------------------6-----------5----5----5----5--5--
--7---------------------------7----------------5----5----5----5--5--
-------------------------6---------------------5----5----5----5--5--
--------------------------------------------------------------------
--------------------------------------------------------------------


                 ^      
        
--5----5---------0----|
--5----5---------1----|
--5----5---------0----|
--5----5---------2----|
-----------------0----|
----------------------|




Bass



         
G||--17----------17------------------17----------17------
D||--17----------17------------------15----------15------
A||----------------------------17----------17--------17--
E||--17----17----------17--------------------------------


      
--------16----------17--16----------16----------16------
--------15----------15--15----------14----------14------
------------------------------15----------15--------15--
--15----------15----15--15------------------------------


        
--------14----------14---------------------------------------------
--------15----------15-----------------------------------7---------
--14----------14------------------------------------7---------7----
----------------------------0------------------5-------------------


       
---------------------------------------7--------------------------
------------7---------------------7-----------7-------------------
-------7---------7------6----5---------------------5----0----5----
--5---------------------------------------------------------------


        
--------------------------------------------------------------------
-------------------------------5-------------------------------5----
--------------------------5---------5----5----------------5---------
--(3)----5----4----3----------------------------3----3--------------


       
------------------------5-------------------------------9---------
-----------------5-----------5---------------------9---------9----
--5----4----3---------------------3-----------8-------------------
---------------------------------------7--------------------------


       
----------------------------------------------------------------
--------------------------------7---------------------7---------
--7------------------------7---------7-----------7---------7----
----------------------5---------------------5-------------------


       
-----------------7--------------------------------------------------
------------7-----------7-------------------------------------------
--3----5---------------------5---------5----------------------------
----------------------------------5-----------5----(5)----6----7----


       
------------7----10------8----9----7----6------5-------------------
-------9--------------------------------------------5----6----7----
--8----------------------------------------------------------------
-------------------------------------------------------------------


       
--------------------------------------------------------------------
------------------------------------7-------------------------------
--7--------------------------------------------------7--------------
-------5----3----(3)------4----5---------5------5---------5---------


       
------------------------------------------------------------------
--------------------------------------------------------7---------
---------------------------------------------------7---------7----
--5----3----1----3------5----3----1----3------5-------------------


       
----------------------------------------------7-------------------
-----------------7---------------------7-----------7----7---------
------------7-----------7----6----5--------------------------5----
--5----5----------------------------------------------------------


       
------------------------------------------------------------------
------------------------7---------------------5-------------------
--5---------5----5-----------5---------5-----------5----5---------
-------5--------------------------3--------------------------0----


       
----------------------------------------------5-------------------
------------5--------------------------5-----------5--------------
-------5---------5------5----4----3---------------------3---------
--3----------------------------------------------------------7----


       
------------9-----------------------------------------------------
-------9---------9---------------------7------7-------------------
--8---------------------7---------7----------------7---------7----
-----------------------------5--------------------------5---------


       
----------------------------------7--------------------------7----
--7--------------------------7---------7----------------7---------
-------6----5----3------5---------------------0----5--------------
------------------------------------------------------------------


       
-----------------------------7----10----8------9-------------------
------------------------9---------------------------9--------------
--5--------------8---------------------------------------7----7----
-------5----7------------------------------------------------------


       
------------------------------------------------------------------
------------------------7-------------------------------7---------
--9----7---------7---------------------------------7---------7----
------------5----------------0----3----4------5-------------------


       
-----------------------------------------------------------------
-----------------------------------------------------------------
-----------------------------------------------------------------
--5----3---------------5----3----1----3------5----3----1----3----


       
------------------------------------------------------------------
------------------------------------------------------------------
------------------------------------------------------------------
--5----3----1----3------5----3----1----3------3----3----4----5----


       
------------------------------------------------------------------
-------7-------------------------------7---------------------7----
--7---------7----7----------------7-----------7----6----5---------
------------------------5----5------------------------------------


       
--7--------------------------7------------------------------------
-------7----------------7---------7-----------5-------------------
------------3----5---------------------5-----------5--------------
--------------------------------------------------------3----3----


       
--------------------------------------------------------5---------
------------------------5--------------------------5---------5----
-----------------5-----------0----5----4------3-------------------
--3----0----3-----------------------------------------------------


       
------------------------9-----------------------------------------
-----------------9-----------9---------------------7--------------
--3---------8---------------------7-----------7---------7----7----
-------7-------------------------------5--------------------------


       
---------------------------------------7--------------------------
------------7---------------------7-----------7--------------7----
-------7---------7------6----5---------------------0----5---------
--5---------------------------------------------------------------


       
---------------------------------------7------10----8----9----7----
----------------------------------9--------------------------------
--5--------------------------8-------------------------------------
-------5----5----6------7------------------------------------------


       
--6----5----------------------------------------------------------
------------5----6------7------------------------------------7----
-----------------------------7------------------------------------
----------------------------------5----0------3----4----5---------


       
---------------------------------------7------7----8----9---------
----------------------------------9--------------------------9----
-------7---------------------8------------------------------------
--5---------5----6------7-----------------------------------------


       
--------------------------------------------------------------------
------------9---------------------------------6g7-------------------
--7----7---------7-----------------------------------7--------------
------------------------5----5----5----5------------------5---------


                                                                           
-------------------|
-------------------|
-------------------|
--5----------------|




Ocarina



          
E||-------------------------7----7----------7------7----------7----7----
B||-----------------------------------10----------------10--------------
G||------------------9--------------------------------------------------
D||--7----9----10-------------------------------------------------------
A||---------------------------------------------------------------------
E||---------------------------------------------------------------------


        
--------7-----------------------------------------------------------------
--10---------10-----------------8----10------------10----10----8----10----
-------------------9-----------------------10-----------------------------
--------------------------10----------------------------------------------
--------------------------------------------------------------------------
--------------------------------------------------------------------------


               
--------------------------------------7------------------------------
--10----8----10----10------8----10-----------------------------------
-------------------------------------------10------9-----------------
---------------------------------------------------------------------
---------------------------------------------------------------------
---------------------------------------------------------------------


       
-------------------------7----7----------7------7----------7----7----
-----------------------------------10----------------10--------------
------------------9--------------------------------------------------
--7----9----10-------------------------------------------------------
---------------------------------------------------------------------
---------------------------------------------------------------------


        
--------7------------------------------------------------7---------7----
--10---------10-----------------8----10------------10---------9---------
-------------------9-----------------------10---------------------------
--------------------------10--------------------------------------------
------------------------------------------------------------------------
------------------------------------------------------------------------


       
--7---------------------------8----------8------------7--------------
-------10---------------10---------10-----------10---------8---------
----------------------------------------------------------------7----
---------------------------------------------------------------------
---------------------------------------------------------------------
---------------------------------------------------------------------


           
--7-------------------------------------------------7------------------
-------------10------------10----------8----10-----------8-------------
-------10----------10------------10------------------------------------
-----------------------------------------------------------------------
-----------------------------------------------------------------------
-----------------------------------------------------------------------


        
--------8----------8------------7----------------7----------------------
--10---------10-----------10---------8----------------------10----------
------------------------------------------7-----------10----------10----
------------------------------------------------------------------------
------------------------------------------------------------------------
------------------------------------------------------------------------


                                                  tr                       
        
---------------------------7------------------------------10----8----7----
--10----------8----10-----------8----10-----------------------------------
--------10----------------------------------------7(7)--------------------
--------------------------------------------------------------------------
--------------------------------------------------------------------------
--------------------------------------------------------------------------


        
------------------------10----7---------7---------------------------
--10-------------------------------9-----------9--------------------
--------9-------------------------------------------10----9---------
---------------------------------------------------------------9----
--------------------------------------------------------------------
--------------------------------------------------------------------


        
-----------------------------8----------8------------7--------------
-----------------------10---------10-----------10---------8---------
---------------------------------------------------------------7----
--10----------------------------------------------------------------
--------------------------------------------------------------------
--------------------------------------------------------------------


           
--7-------------------------------------------------7------------------
-------------10------------10----------8----10-----------8-------------
-------10----------10------------10------------------------------------
-----------------------------------------------------------------------
-----------------------------------------------------------------------
-----------------------------------------------------------------------


        
--------8----------8------------7----------------7----------------------
--10---------10-----------10---------8----------------------10----------
------------------------------------------7-----------10----------10----
------------------------------------------------------------------------
------------------------------------------------------------------------
------------------------------------------------------------------------


        
---------------------------7-------------------------------------------
--10----------8----10-----------8----10--------------------------------
--------10--------------------------------------------------------9----
--------------------------------------------------7----9----10---------
-----------------------------------------------------------------------
-----------------------------------------------------------------------


       
--7----7----------7------7----------7----7------------7---------------
------------10----------------10----------------10---------10---------
-----------------------------------------------------------------9----
----------------------------------------------------------------------
----------------------------------------------------------------------
----------------------------------------------------------------------


        
---------------------------------------------------------------------------
--------8----10------------10----10----8----10------10----8----10----10----
-------------------10------------------------------------------------------
--10-----------------------------------------------------------------------
---------------------------------------------------------------------------
---------------------------------------------------------------------------


       
-------------7-----------------------------------------------------
--8----10----------------------------------------------------------
------------------10------9-----------------------------------9----
----------------------------------------------7----9----10---------
-------------------------------------------------------------------
-------------------------------------------------------------------


       
--7----7----------7------7----------7----7------------7---------------
------------10----------------10----------------10---------10---------
-----------------------------------------------------------------9----
----------------------------------------------------------------------
----------------------------------------------------------------------
----------------------------------------------------------------------


            
---------------------------------7---------7------7-------------------
--------8----10------------10---------9----------------10-------------
-------------------10-------------------------------------------------
--10------------------------------------------------------------------
----------------------------------------------------------------------
----------------------------------------------------------------------


                
--------7----8----10------------------------------------------------|
--10----------------------------------------------------------------|
--------------------------9----9----9----9------9----9----9---------|
--------------------------------------------------------------------|
--------------------------------------------------------------------|
--------------------------------------------------------------------|




Tablature Legend
----------------
L - tied note
x - dead note
g - grace note
(n) - ghost note
> - accentuded note
NH - natural harmonic
AH - artificial harmonic
TH - tapped harmonic
SH - semi harmonic
PH - pitch harmonic
h - hammer on
p - pull off
b - bend
br - bendRelease
pb - preBend
pbr - preBendRelease
brb - bendReleaseBend
\n/ - tremolo bar dip
\n - tremolo bar dive
-/n - tremolo bar Release up
/n\ - tremolo bar inverted dip
/n - tremolo bar return
-\n - tremolo bar Release down
S - shift slide
s - legato slide
/ -  slide into from below or out of upwards
\ -  slide into from above or out of downwards
~ - vibrato
W - wide vibrato
tr - trill
TP - tremolo picking
T - tapping
S - slap
P - pop
< - fade in
^ - brush up
v - brush down
Login or Register to remove this ad.