Ads

Labyrinth Zone (Sonic the Hedgehog) Guitar Tab

Submitted: Jan 07, 2012 by Kain

0
Download | Listen
Game: Sonic the Hedgehog
Composer(s): Masato Nakamura
Style: Transcription
Series: Sonic the Hedgehog

AutoScroll: Slow | Medium | Fast
Labyrinth Zone 
Matt Deakins (Kain)
12/11/2011
Masato Nakamura

Notes in parentheses are imbellishments.

Intro
e--8-7-5-8-8-8-8-----------------------------------
B--------------------------------------------------
G--------------------------------------------------
D--------------------------------------------------
A--------------------------------------------------
E--------------------------------------------------

Main Theme

e--------------------------------------------------
B--------------------------------------------------
G--------------2--4------5--4--2-----2-------------
D--2--5--2--5----------------------5----5-2--------
A--------------------------------------------------
E--------------------------------------------------

e--------------------------------------------------
B--------------------------------------------------
G--------------2--4------5--4--2-----2-------------
D--2--5--2--5----------------------5----5-2--------
A--------------------------------------------------
E--------------------------------------------------

e--------------------------------------------------
B--------------3--5------6--5--3-----3-------------
G--2--5--2--5---------------------5----5-2---------
D--------------------------------------------------
A--------------------------------------------------
E--------------------------------------------------

e--------------------------------------------------
B--------------3--5------6--5--3-------------------
G--2--5--2--5---------------------5-2----7-5-7-5---
D--------------------------------------------------
A--------------------------------------------------
E--------------------------------------------------

e--------------1-0---------0----------0-----0------
B-1---1-1-3-1------3-1-0-1------1---1---3-1--------
G--------------------------------------------------
D--------------------------------------------------
A--------------------------------------------------
E--------------------------------------------------

e---------------------------1-0----------0---------
B---------------1---1-1-3-1------3-1-0-1-----------
G--(2--2--2--2)------------------------------------
D--------------------------------------------------
A--------------------------------------------------
E--------------------------------------------------

e--------------------------------------------------
B---6-5-3------------------------------------------
G---------5-3-2--------5-(5-L)---------------------
D---------------5-3-2------------------------------
A--------------------------------------------------
E--------------------------------------------------

Repeat
Login or Register to remove this ad.