Ads

Green Hill Zone (Sonic the Hedgehog) Guitar Tab

Submitted: Sep 26, 2012 by sir0nion

4.5
Average: 4.5 (2 votes)
Download | Listen
Game: Sonic the Hedgehog
Composer(s): Masato Nakamura
Style: Arrangement, Fingerstyle
Series: Sonic the Hedgehog

AutoScroll: Slow | Medium | Fast
Song Title: 	Green Hill Zone
Game: 		Sonic the Hedgehog
Composer: 	Masato Nakamura
Tabbed By: 	James Carson
Date: 		09/26/2012

     S S S S S S S S S S S S S S S S    S S S S S S S S S S S S S S S S  
E||--2-----------0-----------2-------|------0-----------2-------0-------|
B||--3---3-------3-------3---3---3---|------3-----------3---3---3---3---|
G||----------------------------------|--------------0-------------------|
D||--0-0---0-0-0---0-0-0---0-0-0---0-|--0-0---0-3-4---0-0-0---0-0-0---0-|
A||----------------------------------|----------------------------------|
D||----------------------------------|----------------------------------|


  S S S S S S S S S S S S S S S S    S S S S S S S S S S S S S S S S  
--3-----------2-----------0-------|----2-------2-------2-------2-----|
--3---3-------3-------3---3---3---|------3-------3-------3-------3---|
----------------------------------|--------0-------0-------0-------0-|
--0-0---0-0-0---0-0-0---0-0-0---0-|--0-------------------------------|
----------------------------------|----------2-------3-------4-------|
----------------------------------|----------------------------------|


  S S S S S S S S S S S S S S S S    S S S S S S S S S S S S S S S S  
--0-----------2-----------3-------|--0-----------2-----------3-------|
--3---3-------3-------3---3---3---|--3-----------3-------3---3---3---|
----------------------------------|----------0-----------------------|
--0-0---0-0-0---0-0-0---0-0-0---0-|--0-0-3-4---0---0-0-0---0-0-0---0-|
----------------------------------|----------------------------------|
----------------------------------|----------------------------------|


  S S S S S S S S S S S S S S S S    S S  S S S S  S S S S  S S S S S S  
--3-----------2-------------------|----0h-2-----0h-2-----0h-2-----------|
--3---3-------3-------------------|--3------3-3------3-3------3---------|
--------------------------0-0-3-4-|-------------------------------------|
--0-0---0-0-0---0-0-0-3-4---------|--0--------0--------0--------2---4---|
----------------------------------|-------------------------------------|
----------------------------------|-------------------------------0---0-|


  S S S S S S S S S S S S S S S S    S S S S S S S S S S S S S S S S  
----------------------------------|----------------------------------|
------------------3---0-------3---|--2-------3---2-------------------|
------0-------0-------0---0---0---|----------------------2-----------|
----------------------------------|------4-------4-------4---0-------|
----------------------------------|----------------------------3-0---|
--5-5---5-5-5---5-5-5---5-5-5---5-|--0-0---0-0-0---0-0-0---0-------4-|


  S S S S S S S S S S S S S S S S    S S S S S S S S S S S S S S S S  
----------------------------------|----------------------------------|
--------------0---7---5-------3---|--2-------3---2-------------------|
------0-------0-------0-------0---|----------------------2-----------|
----------------------------------|------4-------4-------4---0-------|
----------------------------------|----------------------------3-0---|
--5-5---5-5-5---5-5-5---5-5-5---5-|--0-0---0-0-0---0-0-0---0-------4-|


  S S S S S S S S S S S S S S S S    S S S S S S S S S S S S S S S   S  
----------------------------------|------------------------------------|
------------------3---0-------3---|--2-------3---2---------------------|
------0-------0-------0---0---0---|----------------------2-------------|
----------------------------------|------4-------4-------4---0---------|
----------------------------------|------------------------------------|
--5-5---5-5-5---5-5-5---5-5-5---5-|--0-0---0-0-0---0-0-0---0---5-2-5g6-|


  S S S S S S S S S S S S S S S S    S S S S S S S S S S S S S S S S  
----------------------------------|----------------------2---2---5---|
--------------0---0-----------0---|----------------------------1---3-|
----------------------0-----------|--2-------4---2---------2---------|
------2-------2-------2---2---2---|------0-------0---0-0-----2---4---|
--0-0---0-0-0---0-0-0---0-0-0---0-|----------------------------------|
----------------------------------|--0-0---0-0-0---0-----------------|


  S S S S S S S S S S S S S S S S    S S S S S S S S S S S S S S S S  
----------------------------------|----------------------------------|
------------------3---0-------3---|--2-------3---2-------------------|
------0-------0-------0---0---0---|----------------------2-----------|
----------------------------------|------4-------4-------4---0-------|
----------------------------------|----------------------------3-0---|
--5-5---5-5-5---5-5-5---5-5-5---5-|--0-0---0-0-0---0-0-0---0-------4-|


  S S S S S S S S S S S S S S S S    S S S S S S S S S S S S S S S S  
----------------------------------|----------------------------------|
--------------0---7---5-------3---|--2-------3---2-------------------|
------0-------0-------0-------0---|----------------------2-----------|
----------------------------------|------4-------4-------4---0-------|
----------------------------------|----------------------------3-0---|
--5-5---5-5-5---5-5-5---5-5-5---5-|--0-0---0-0-0---0-0-0---0-------4-|


  S S S S S S S S S S S S S S S S    S S S S S S S S S S S S S S S   S  
----------------------------------|------------------------------------|
------------------3---0---0---3---|--2-------3---2---------------------|
------0-------0-------0---0---0---|----------------------2-------------|
----------------------------------|------4-------4-------4---0---------|
----------------------------------|------------------------------------|
--5-5---5-5-5---5-5-5---5-5-5---5-|--0-0---0-0-0---0-0-0---0---5-2-5g6-|


  S S S S S S S S S S S S S S S S    S S S S S S S S S S S S S S S  S  
----------------------------------|-----------------------------------|
--------------0---0-----------0---|------------------------------3h-4-|
----------------------0-----------|--2-------4---2-----------0-4------|
------2-------2-------2---2---2---|------0-------0-------0-3----------|
--0-0---0-0-0---0-0-0---0-0-0---0-|--------------------2--------------|
----------------------------------|--0-0---0-0-0---0-5----------------|


  S S S S S S S S S S S S S S S S    S S S S S S S S S S S S S S S S  
--0-----0-----0-----0-----0-----0-|------0-----0-----0-------0---2---|
----1-----1-----0-----0-----2-----|--2-----0-----0-------3-----------|
------0-----0-----0-----0-----2---|----2-----0-----0-----------------|
----------------------------------|--------------------0---0---0---0-|
--3-----------2-----------0-------|----------------------------------|
----------------------------------|------5-----------4-------4-------|


                                         ^                         
  S S S S S S S S S S S S S S S S    S S Q    S S S S S S S S S S  
--2-----2-----4-----4-----5-----5-|------9--------------------2---|
----3-----3-----5-----5-----7-----|--5---7----3-------3---3-------|
------4-----4-----6-----6-----7---|----7-9------4-----------------|
--------------------------0-------|------8--------4---------0---4-|
--2-----------4-------------------|------7--------------2---------|
----------------------------------|-----------------0-------------|


  S S S S S S S S S S S S S S S S    S S S S S S S S S S S S S S S S  
--1-----1-----1-----1-------------|------------------0-------1---0---|
----3-----3-----1-----1---6-----6-|------6-----6---------3-----------|
------3-----3-----2-----2---0-----|--0-----4-----4-------------------|
------------------------------0---|----0-----6-----6-2-2-2-2-0-0-0-0-|
--1-----------0-------------------|----------------------------------|
--------------------------5-------|------3-----3---------------------|


  S S S S S S S S S S S S S S  S S    S S  S S  S S  S S  S S  S S  S S E   
------5---7---5-----------7---14---|------------------------------------2--|
-----------------------------------|------10---12---10---14---10---10---3--|
-----------------------------------|------------------------------------2--|
--------------2-2-2-2-2-2----------|---------0----0----0----0----0----0-0--|
--0-0-0-0-0-0-------------0-0--0-0-|--0-0--9---10----9---12----9----9---0--|
-----------------------------------|------------------------------------0--|


-------||
-------||
-------||
-------||
-------||
-------||




Duration Legend
---------------
W - whole
H - half
Q - quarter
E - 8th
S - 16th
T - 32nd
X - 64th
. - note dotted
|-n-|  - n-tuplets


Tablature Legend
----------------
L - tied note
x - dead note
g - grace note
(n) - ghost note
> - accentuded note
NH - natural harmonic
AH - artificial harmonic
TH - tapped harmonic
SH - semi harmonic
PH - pitch harmonic
h - hammer on
p - pull off
b - bend
br - bendRelease
pb - preBend
pbr - preBendRelease
brb - bendReleaseBend
\n/ - tremolo bar dip
\n - tremolo bar dive
-/n - tremolo bar Release up
/n\ - tremolo bar inverted dip
/n - tremolo bar return
-\n - tremolo bar Release down
S - shift slide
s - legato slide
/ -  slide into from below or out of upwards
\ -  slide into from above or out of downwards
~ - vibrato
W - wide vibrato
tr - trill
TP - tremolo picking
T - tapping
S - slap
P - pop
< - fade in
^ - brush up
v - brush down
Login or Register to remove this ad.

7 comments on Green Hill Zone

wow goddamn

it's so fast @[email protected]

damn. so much 16ths :3 mmm.

damn. so much 16ths :3 mmm. looks yummy. thanks!!

i made this to practice

i made this to practice hybrid picking. i use a pick for the low notes and finger picks on my middle and ring fingers. i got to hit up the woodshed so i can record this.

Hehe! I had guessed it was

Hehe! I had guessed it was to practice alternating thumb-index on bass notes.

sir0nion said i made this to

sir0nion said

i made this to practice hybrid picking. i use a pick for the low notes and finger picks on my middle and ring fingers. i got to hit up the woodshed so i can record this.

I would be very much be interested in seeing how this is played!

Brilliant! I will admit that

4

Brilliant! I will admit that the start had me questioning you - it was so far out of timing from the original (the bass notes, at least) that I got too messed and couldn't play it, but when the, uh "verse" came in, I just felt it, and it was great. Definitely one of the better arrangements I've seen.

i kind of just threw the bass

i kind of just threw the bass notes in with reckless abandon in the intro part. i like the root minor 3rd major 3rd perfect fourth motif so i was like yeah just put that in there somewhere.