Final Zone (Sonic the Hedgehog) Bass Tab

Submitted: Nov 21, 2010 by soundsandstuff

0
Download | Listen
Game: Sonic the Hedgehog
Composer(s): Masato Nakamura
Style: Alternate picking, Transcription
Series: Sonic the Hedgehog

AutoScroll: Slow | Medium | Fast
Sonic the Hedgehog 1 - Final Zone
Platform: SEGA Genesis/Mega Drive
Developer: SEGA
Composed by: Masato Nakamura

Bass Guitar Tab Created By: soundsandstuff www.youtube.com/user/soundsandstuff
Completed on 11/18/09


Read: Before playing, tune the fourth string on your bass guitar down to C.

================================== A

G|------------------------|
D|------------------------|
A|-------------------3-2--|
C|------------------------|

======================================= B

G|------------------------|
D|------------------------|
A|--0----0---0-0--0-------|
C|---------------------4--|


G|-------------------------|
D|-------------------------|
A|--0---0-------0----------|
C|----4------4-------7-----|


G|------------------------|
D|------------------------|
A|------------------------|
C|--5----5---5-5--5----0--|


G|--------------------------|
D|--------------------------|
A|---------------------3-2--|
C|--7--7----7--8--8---------|

======                =========

G|------------------------|
D|------------------------|
A|--0----0---0-0--0-------|
C|---------------------4--|


G|-------------------------|
D|-------------------------|
A|--0---0-------0----------|
C|----4------4-------7-----|


G|------------------------|
D|------------------------|
A|------------------------|
C|--5----5---5-5--5----0--|


G|------------------------|
D|------------------------|
A|---------------------0--|
C|--7--7----7--8--8-------|

============================================= C

G|------------------------|
D|------------------------|
A|------------------------|
C|--5----5---5-5--5----0--|


G|--------------------------|
D|--------------------------|
A|---------------------3-2--|
C|--7--7----7--4--4---------|

========================================================= Repeat

Notes:

- Thank you for playing!
Login or Register to remove this ad.