Act Clear (Sonic the Hedgehog) Bass Tab

Submitted: Nov 21, 2010 by soundsandstuff (Last updated: Nov 21, 2010)

0
Download | Listen
Game: Sonic the Hedgehog
Composer(s): Masato Nakamura
Style: Alternate picking, Transcription
Series: Sonic the Hedgehog

AutoScroll: Slow | Medium | Fast
Sonic the Hedgehog 1 - Act Clear
Platform: SEGA Genesis/Mega Drive
Developer: SEGA
Composed by: Masato Nakamura

Bass Guitar Tab Created By: soundsandstuff www.youtube.com/user/soundsandstuff
Completed on 10/27/09

Read: Before playing, tune the fourth string on your bass guitar down to C.


Act Clear

========================================= A 

G|---------------------------9--10--|
D|----------------------------------|
A|--10-10-------10-10---------------|
C|--------7--7--------7--7----------|


G|--12------------------------------|
D|----------------------------------|
A|----------------------------------|
C|--------7---9---------------------|

======================================================== End
Login or Register to remove this ad.