Ads

Ice Cap Zone (Sonic the Hedgehog 3) Guitar Tab

Submitted: Aug 17, 2021 by Omnicide (Last updated: Aug 22, 2021)

5
Average: 5 (2 votes)
Download | Listen
Game: Sonic the Hedgehog 3
Composer(s): Brad Buxer, Various Composers, Michael Jackson
Style: Arrangement, Fingerstyle
Series: Sonic the Hedgehog

AutoScroll: Slow | Medium | Fast
Ice Cap Zone                                   
Sonic the Hedgehog 3
Composed by Brad Buxer (The Jetzons)
Arranged by William Geesdorf


Standard Tuning
(Capo 1)


      E  E  E  E  E  E  Q       E  E  E  E  E  E  Q     
E||---2----------------------|--------------0----------|
B||--------------------------|--0----------------------|
G||*--------4-----------2----|--------0----------------|
D||*-----4-----4-----2-------|-----0-----0--------4----|
A||---2-----------0----------|-----------------4-------|
E||--------------------------|--3-----------2----------|


  E  E  E  E  E  E  Q       E  E  E  E  E  E  Q     4x   E  E  Q    E  E  Q     
--2----------------------|--0-----------------------||---------7----5----------|
--------------------3----|--------------------------||--------------------0----|
--------4--------2-------|--------2-----------2----*||*----------------0-------|
-----4-----4--0----------|-----2-----2-----2-------*||*--9---------------------|
--2----------------------|--0-----------0-----------||------9------------------|
-------------------------|--------------------------||---7----------3----------|

                                                    1st Ending
  E.  E.  E  E  E  Q       E  E  Q    E  E  Q       E  E  E  E  E  E  Q       
----------0-------------|--------7----5----------|--------------------------||
--2---3-----------------|-------------------0----|--2-----------------------||
--2----------2----------|----------------0-------|--------2----------------*||
-------------------4----|--9---------------------|-----2-----2--------4----*||
--0-------------4-------|-----9------------------|--0--------------4--------||
-------------2----------|--7----------3----------|--------------2-----------||

  2nd Ending
  E  E  E  E  E  E  Q         E  E  E  E  E  E  Q       E  E  E  E  E  E  Q     
-------------------------||---2----------------------|--------------0----------|
--2----------------------||--------------------------|--0----------------------|
--------2-----------2----||*--------4-----------2----|--------0----------------|
-----2-----2-----2-------||*-----4-----4-----2-------|-----0-----0--------4----|
--0-----------0----------||---2-----------0----------|-----------------4-------|
-------------------------||--------------------------|--3-----------2----------|


  E  E  E  E  E  E  Q       E  E  E  E  E  E  Q          E  E  Q    E  E  Q     
--2----------------------|--0-----------------------||---------7----5----------|
--------------------3----|--------------------------||--------------------0----|
--------4--------2-------|--------2-----------2----*||*----------------0-------|
-----4-----4--0----------|-----2-----2-----2-------*||*--9---------------------|
--2----------------------|--0-----------0-----------||------9------------------|
-------------------------|--------------------------||---7----------3----------|


  E.  E.  E  E  E  Q       E  E  Q    E  E  Q       E  E  E  E  E  E  Q     
----------0-------------|--------7----5----------|-------------------------|
--2---3-----------------|-------------------0----|--2----------------------|
--2----------2----------|----------------0-------|--------2----------------|
-------------------4----|--9---------------------|-----2-----2--------4----|
--0-------------4-------|-----9------------------|--0--------------4-------|
-------------2----------|--7----------3----------|--------------2----------|


  E  E  Q    E  E  Q       E.  E.  E  E  E  Q       E  E  Q    E  E  Q     
--------7----5----------|----------0-------------|--------7----5----------|
-------------------0----|--2---3-----------------|-------------------0----|
----------------0-------|--2----------2----------|----------------0-------|
--9---------------------|-------------------4----|--9---------------------|
-----9------------------|--0-------------4-------|-----9------------------|
--7----------3----------|-------------2----------|--7----------3----------|


  E  E  E  E  E  E  Q         E  E  E  E  E  E  Q       E  E  E  E  E  Q    E   
--------------------------||-------------------------|-------------------------|
--2-----------------------||--------------------0----|--------2----------------|
--------2-----------2----*||--------4--------0-------|-----2-----2-------------|
-----2-----2-----2-------*||-----4-----4-------------|-----------------4----4--|
--0-----------0-----------||--2-----------2----------|--4-----------4----------|
--------------------------||-------------------------|-------------------------|


  E  E  E  E  E  E  Q       E  E  E  E  E  E  Q       E  E  E  E  E  E  Q     
-------------------------|-------------------------|-------------------------|
--------------------0----|--------2-----------2----|--------------------0----|
--------4--------0-------|-----2-----2-----2-------|--------4--------0-------|
-----4-----4-------------|-------------------------|-----4-----4-------------|
--2-----------2----------|--4-----------4----------|--2-----------2----------|
-------------------------|-------------------------|-------------------------|


  E  E  E  E  E  Q    E     E  E  E  E  E  E  Q       E  E  E  E  E  E  Q     
-------------------------|-------------------------|-------------------------|
--------2----------------|--------------------0----|--------2-----------2----|
-----2-----2-------------|--------4--------0-------|-----2-----2-----2-------|
-----------------4----4--|-----4-----4-------------|-------------------------|
--4-----------4----------|--2-----------2----------|--4-----------4----------|
-------------------------|-------------------------|-------------------------|


  ^                                      
  W                   W                  
--2----------------|--L----------------||
--2----------------|--L----------------||
--4----------------|--L----------------||
--4----------------|--L----------------||
--2----------------|--L----------------||
-------------------|-------------------||




Duration Legend
---------------
W - whole
H - half
Q - quarter
E - 8th
S - 16th
T - 32nd
X - 64th
. - note dotted
|-n-|  - n-tuplets


Tablature Legend
----------------
L - tied note
^ - brush up
Login or Register to remove this ad.

2 comments on Ice Cap Zone

So great! I rememember we had

5

So great! I rememember we had a gaming magazine, and this melody would always be be at the top of fan chart.

It's a good one, and very

It's a good one, and very simple. The chorus melody is somewhat bittersweet, maybe a bit nostalgic too.