Ads

Ice Cap Zone (Sonic the Hedgehog 3) Guitar Tab

Submitted: Oct 27, 2015 by fernandesmetal

0
Download | Listen
Game: Sonic the Hedgehog 3
Composer(s): Brad Buxer, Various Composers, Michael Jackson
Style: Arrangement, Fingerstyle
Series: Sonic the Hedgehog

AutoScroll: Slow | Medium | Fast
sorry mistakes.  im not good to make tabs hope you understand ^^.
i recommend arpeggio for a good fingertysle.

 (intro play 2x)  

E-------0---------------------0------------/
B-------1-----------------3---1--------3---/
G-------2------------2----4---2----0---4---/
D--------------0-----3----5------------5---/
A-------0------------3----0---0----3-------/
E--------------3-----1-----------------3---/.


(play 2x)

E-------0---------------------0---------------------/
B-------1-----------------3---1--------3---------3--/
G-------2------------2----4---2----0---4---------4--/
D--------------0-----3----5------------5------5-----/
A-------0------------3----0---0----3----------------/
E--------------3-----1-----------------3---3--------/



Chorus  (play 2x)

E----------5----3-----------0-----------------5---3-------x----------/
B----1----------3----1---3----------------1-------3----3--x------3---/
G----2----------4----2----------2---------2-------4----4--x------4---/
D-------------------------------3----------------------5--x----5-----/
A----0---------------0----------3---------0------------0--x--0-------/
E---------------3---------------1-----------------3-------x----------/

after last part repeat (intro) and make a infinite loop ^^






Login or Register to remove this ad.