Ads

Ice Cap Zone (Sonic the Hedgehog 3) Guitar Tab

Submitted: Oct 14, 2011 by Kabukibear

5
Average: 5 (6 votes)
Download | Listen
Game: Sonic the Hedgehog 3
Composer(s): Brad Buxer, Various Composers, Michael Jackson
Style: Arrangement, Fingerstyle
Series: Sonic the Hedgehog

AutoScroll: Slow | Medium | Fast
Ice Cap Zone                                   
~Sonic the Hedgehog 3~
Composed by: Brad Buxer
Arranged by: Justin Lincoln



     E  E  E  E  E  E  E  E     E  E  E  E  E  E  E  E   
E||--0-----------------------|--------------------------|
B||--1-----------------------|--------------3-----------|
G||--2-----------0-----------|--2-----------4-----------|
D||--------------------------|--3-----------5-----------|
A||--0--0-----0--------------|--------------------------|
E||--------------3--3-----3--|--1--1-----1--0--0-----0--|


  E  E  E  E  E  E  E  E     E  E  E  E  E  E  E  E   
--0-----------------------|--------------------------|
--1-----------------------|--3-----------------------|
--2-----------0-----------|--4-----------------------|
--------------------------|--5-----------------------|
--0--0-----0--3--3-----3--|--------------------------|
--------------------------|--3--3-----3--3--3-----3--|


  E  E  E  E  E  E  E  E     E  E  E  E  E  E  E  E   
--0-----------------------|--------------------------|
--1-----------------------|--------------3-----------|
--2-----------0-----------|--2-----------4-----------|
--------------------------|--3-----------5-----------|
--0--0-----0--------------|--------------------------|
--------------3--3-----3--|--1--1-----1--0--0-----0--|


  E  E  E  E  E  E  E  E     E  E  E  E  E  E  E  E     
--0-----------------------|---------------------------||
--1-----------------------|--3------------------------||
--2-----------0-----------|--4-----------------------*||
--------------------------|--5-----------------------*||
--0--0-----0--3--3-----3--|---------------------------||
--------------------------|--3--3-----3--3--3-----3---||


   S S S S S S S S S S S S S S S S    S S S S S S S S S S S S S S S S  
-----------5-------3---------------|----------------------------------|
-----------------------------------|--0-----1-----3-------------------|
*--2-------------------2-------2---|----0-------------0---------------|
*----2---2-----2-----3---3---3---3-|------0-----0---0-----2-------2---|
---0---0-----0---0-----------------|--------------------2---2---2---2-|
-------------------1-------1-------|--3-------3-------0-------0-------|


  S S S S S S S S S S S S S S S S    S S S S S S S S S S S S S S S S    
----------5-------3---------------|-----------------------------------||
----------------------------------|--0--------------------------------||
--2-------------------2-------2---|------0-------0-------0-------0---*||
----2---2-----2-----3---3---3---3-|----0---0---0---0---2---2---2---2-*||
--0---0-----0---0-----------------|-----------------------------------||
------------------1-------1-------|--3-------3-------0-------0--------||


  E  E  E  E  E  E  E  E     E  E  E  E  E  E  E  E   
--0-----------------------|--------------------------|
--1-----------------------|--------------3-----------|
--2-----------0-----------|--2-----------4-----------|
--------------------------|--3-----------5-----------|
--0--0-----0--------------|--------------------------|
--------------3--3-----3--|--1--1-----1--0--0-----0--|


  E  E  E  E  E  E  E  E     E  E  E  E  E  E  E  E   
--0-----------------------|--------------------------|
--1-----------------------|--3-----------------------|
--2-----------0-----------|--4-----------------------|
--------------------------|--5-----------------------|
--0--0-----0--3--3-----3--|--------------------------|
--------------------------|--3--3-----3--3--3-----3--|


  E  E  E  E  E  E  E  E     E  E  E  E  E  E  E  E   
--0-----------------------|--------------------------|
--1-----------------------|--------------3-----------|
--2-----------0-----------|--2-----------4-----------|
--------------------------|--3-----------5-----------|
--0--0-----0--------------|--------------------------|
--------------3--3-----3--|--1--1-----1--0--0-----0--|


  E  E  E  E  E  E  E  E     E  E  E  E  E  E  E  E   
--0-----------------------|--------------------------|
--1-----------------------|--3-----------------------|
--2-----------0-----------|--4-----------------------|
--------------------------|--5-----------------------|
--0--0-----0--3--3-----3--|--------------------------|
--------------------------|--3--3-----3--3--3-----3--|


    S S S S S S S S S S S S S S S S    S S S S S S S S S S S S S S S S  
|-----------5-------3---------------|----------------------------------|
|-----------------------------------|--0-----1-----3-------------------|
|*--2-------------------2-------2---|----0-------------0---------------|
|*----2---2-----2-----3---3---3---3-|------0-----0---0-----2-------2---|
|---0---0-----0---0-----------------|--------------------2---2---2---2-|
|-------------------1-------1-------|--3-------3-------0-------0-------|


  S S S S S S S S S S S S S S S S    S S S S S S S S S S S S S S S S  4x
----------5-------3---------------|-----------------------------------||
----------------------------------|--0--------------------------------||
--2-------------------2-------2---|------0-------0-------0-------0---*||
----2---2-----2-----3---3---3---3-|----0---0---0---0---2---2---2---2-*||
--0---0-----0---0-----------------|-----------------------------------||
------------------1-------1-------|--3-------3-------0-------0--------||


  W                  
--0----------------||
--1----------------||
--2----------------||
--2----------------||
--0----------------||
-------------------||




Duration Legend
---------------
W - whole
H - half
Q - quarter
E - 8th
S - 16th
T - 32nd
X - 64th
. - note dotted
|-n-|  - n-tuplets

Login or Register to remove this ad.

4 comments on Ice Cap Zone

Just a quick one, hopefully

Just a quick one, hopefully that works a little better for you Kara

Kabukibear said Just a quick

Kabukibear said

Just a quick one, hopefully that works a little better for you Kara

Dude what the fuck how did I miss this?

Thank you so much kabuki I REALLY appreciate it sorry it took me so long to notice this.

oh and 5 stars.

5

oh and 5 stars.

I sightread the first section

5

I sightread the first section at a robust 120-ish bpm.

Then I scrolled down and legit busted up laughing, hahahah. Maybe I'll try making a duet based off of this though. Or just play this piece as being really "thoughtful" at 80 bpm lol.