Ads

Endless Mine Zone (Sonic the Hedgehog 3) Guitar Tab

Submitted: Apr 15, 2014 by saturdayxiii

0
Download | Listen
Game: Sonic the Hedgehog 3
Composer(s): Brad Buxer, Various Composers, Michael Jackson
Style: Transcription
Series: Sonic the Hedgehog

AutoScroll: Slow | Medium | Fast
Endless Mine Zone
Sonic the Hedgehog 3
Composed by Brad Buxer
Tabbed by Tucker Burian, Submitted by archard
6/19/07
Retabbed by PANNULTRA 1/29/14

E|--15--------------13------15-------
B|----------13-----------------------
G|-----------------------------------
D|-----------------------------------
A|-----------------------------------
E|-----------------------------------

E|--------------15-----------------------15--13--12--13--12--10--8--7---
B|--13--12--13-----13--12--12--13-------------------------------------8-
G|--------------------------------14------------------------------------
D|----------------------------------------------------------------------
A|----------------------------------------------------------------------
E|----------------------------------------------------------------------

E|------------15---------------------15--13--12--13--15--17--20--19--20--22-----
B|--13-12--13-----13--12--12--13------------------------------------------------
G|-------------------------------14---------------------------------------------
D|------------------------------------------------------------------------------
A|------------------------------------------------------------------------------
E|------------------------------------------------------------------------------


E|------------------------------------------------------------12----------------
B|--13-------------13-15-----------------------------------13----15-------------
G|--------------14---------12----14------14-------12-13-14--------------14------
D|-----------14-----------------------------12-14-------------------------------
A|------------------------------------------------------------------------------
E|------------------------------------------------------------------------------

E|-20---19----17-------------12-------------15------
B|----------------------------------15--------------
G|--------------------------------------------------
D|--------------------------------------------------
A|--------------------------------------------------
E|--------------------------------------------------

E|--12------------12-----------------12---------------12---12----------------------
B|--------13--15-----15--13------13-----15p13-----13-----------15--13--15----------
G|-----14--------------------13---------------12---------------------------14--11--
D|---------------------------------------------------------------------------------
A|---------------------------------------------------------------------------------
E|---------------------------------------------------------------------------------


E|--------------------------------------------------------------------------
B|-------------------------------12---------------12-13-15-----------15-15--
G|------------------14-12----14--------14-----14----------------------------
D|--15----------15----------------------------------------------------------
A|----------15--------------------------------------------------------------
E|--------------------------------------------------------------------------
Login or Register to remove this ad.