Act 2 Boss (Sonic the Hedgehog 3) Bass/Guitar Tab

Submitted: Apr 24, 2010 by Jacob31593 (Last updated: Apr 24, 2010)

5
Average: 5 (3 votes)
Download | Listen
Game: Sonic the Hedgehog 3
Composer(s): Brad Buxer, Various Composers, Michael Jackson
Style: 2 or more instruments, Alternate picking, Arrangement
Series: Sonic the Hedgehog

This song is also called Major Bosses

AutoScroll: Slow | Medium | Fast

Act 2 Boss from Sonic 3
Composed by Brad Buxer
Tabbed by Jacob31593
Apr 24th 2010

Guitar 3 is in Drop C
Bass is 5 string, but if you only have a four string than you just need to tune all the way down to B :O
156 BPM

Guitar 1
                                         *play quieter :p*
       E   E   E   E   E   E   E   E      E   E   E   H        E      E   E   E   E   E   E   E   E   
E||-----------------------------------|---------------------------|----------------------------------|
B||---12--12--12--12--12--12--12--12--|--12--12--12--12-----------|--12--12--12--12--12--12--12--12--|
G||*----------------------------------|---------------------------|----------------------------------|
D||*----------------------------------|---------------------------|----------------------------------|
A||-----------------------------------|---------------------------|----------------------------------|
E||-----------------------------------|---------------------------|----------------------------------|

  *play quieter :p*
   E   E   E   H        E     H        E   E  E   E      Q     Q    Q     Q       E  E  E  E  E  E  E   E   
---------------------------|-------------------------|-------------------------|---------------------------|
--12--12--12--12-----------|------------------8--10--|--12----10----8----------|--8------------------------|
---------------------------|--9--------L--11---------|-------------------11----|-----9--9--9--------9--11--|
---------------------------|-------------------------|-------------------------|--------------9--9---------|
---------------------------|-------------------------|-------------------------|---------------------------|
---------------------------|-------------------------|-------------------------|---------------------------|


   E  E   E   H        E     H        E   E  E   E      Q     Q    Q     Q       E  E  E  E  E  E  E   E   
--------------------------|-------------------------|-------------------------|---------------------------|
--10--8------10--------L--|------------------8--10--|--12----10----8----------|--8------------------------|
---------11---------------|--9--------L--11---------|-------------------11----|-----9--9--9--------9--11--|
--------------------------|-------------------------|-------------------------|--------------9--9---------|
--------------------------|-------------------------|-------------------------|---------------------------|
--------------------------|-------------------------|-------------------------|---------------------------|


   E  E   E   Q.      E   E     E  E  E  E  E  E  E  E      E   E   E   E   E   E   E   E   
-----------------------------|--------------------------|----------------------------------|
--10--8------10------12--10--|--8--------8--------8-----|--10----------10----------10------|
---------11------------------|-----9--9-----9--9-----9--|------11--11------11--11------11--|
-----------------------------|--------------------------|----------------------------------|
-----------------------------|--------------------------|----------------------------------|
-----------------------------|--------------------------|----------------------------------|


   E   E   E   E   E   E   E   E      E   E   E   H        E     E  E  E  E  E  E  E  E   
--------------------------10------|---------------------------|--------------------------|
--12----------12--------------13--|--12--13--12---------------|--8--------8--------8-----|
------12--12------12--12----------|--------------12--------L--|-----9--9-----9--9-----9--|
----------------------------------|---------------------------|--------------------------|
----------------------------------|---------------------------|--------------------------|
----------------------------------|---------------------------|--------------------------|


   E   E   E   E   E   E   E   E      E   E   E   E   E   E   E   E      E   E   E   H        E   Repeat
----------------------------------|--------------------------10------|--------------15--------L---||
--10----------10----------10------|--12----------12--------------13--|--12--13--12----------------||
------11--11------11--11------11--|------12--12------12--12----------|---------------------------*||
----------------------------------|----------------------------------|---------------------------*||
----------------------------------|----------------------------------|----------------------------||
----------------------------------|----------------------------------|----------------------------||




Duration Legend
---------------
W - whole
H - half
Q - quarter
E - 8th
. - note dotted

Guitar 2

                                                              E  E   E   H        E                           
E||--------|-------|-------|-------|-------|-------|-------|--8--7-------------------|-------|-------|-------|
B||--------|-------|-------|-------|-------|-------|-------|--------10--10--------L--|-------|-------|-------|
G||*-------|-------|-------|-------|-------|-------|-------|-------------------------|-------|-------|-------|
D||*-------|-------|-------|-------|-------|-------|-------|-------------------------|-------|-------|-------|
A||--------|-------|-------|-------|-------|-------|-------|-------------------------|-------|-------|-------|
E||--------|-------|-------|-------|-------|-------|-------|-------------------------|-------|-------|-------|


  E  E   E   H        E                                     E  Q    E  Q    E  E     E  Q    E  Q    E  E   
--8--7------10--------L--|-------|-------|-------|-------|------------------------|------------------------|
--------10---------------|-------|-------|-------|-------|------------------------|------------------------|
-------------------------|-------|-------|-------|-------|------------------------|--2-------2-------2-----|
-------------------------|-------|-------|-------|-------|--5-------5-------5-----|------------------------|
-------------------------|-------|-------|-------|-------|------------------------|------------------------|
-------------------------|-------|-------|-------|-------|------------------------|------------------------|


  E  Q    E  Q    E  E     E  E  E  H        E   Repeat
------------------------|------------------------||
------------------------|------------------------||
--4-------4-------4-----|--4--5--4--------------*||
------------------------|-----------5--------L--*||
------------------------|------------------------||
------------------------|------------------------||



Guitar 3

              E   Q.      H                   E   Q.      H           Q    H.              Q    H.            
D||--------|-----------------------|-------|-----------------------|--------------------|--------------------|
A||--------|-----------------------|-------|-----------------------|--------------------|--------------------|
F||*-------|-----------------------|-------|-----------------------|--6-----------------|--6-----------------|
C||*-------|-----12------14--------|-------|-----12------14--------|--4-----------------|--4-----------------|
G||--------|-----12------14--------|-------|-----12------14--------|--4-----------------|--4-----------------|
C||--------|-----12------14--------|-------|-----12------14--------|--4-----------------|--4-----------------|


  Q    H.              W                   Q    H.              Q    H.              Q    H.            
--------------------|-------------------|--------------------|--------------------|--------------------|
--------------------|-------------------|--------------------|--------------------|--------------------|
--6-----------------|--4----------------|--6-----------------|--6-----------------|--6-----------------|
--4-----------------|--2----------------|--4-----------------|--4-----------------|--4-----------------|
--4-----------------|--2----------------|--4-----------------|--4-----------------|--4-----------------|
--4-----------------|--2----------------|--4-----------------|--4-----------------|--4-----------------|


  W                   Q    H.              Q    H.              Q    H.              Q    Q    Q    Q     
-------------------|--------------------|--------------------|--------------------|----------------------|
-------------------|--------------------|--------------------|--------------------|----------------------|
--9----------------|--2-----------------|--4-----------------|--6-----------------|----------------------|
--9----------------|--0-----------------|--2-----------------|--4-----------------|--9----4----2----0----|
--7----------------|--0-----------------|--2-----------------|--4-----------------|--9----4----2----0----|
--7----------------|--0-----------------|--2-----------------|--4-----------------|--9----4----2----0----|


  Q    H.              Q    H.              Q    H.              Q    Q    Q    Q     Repeat
--------------------|--------------------|--------------------|-----------------------||
--------------------|--------------------|--------------------|-----------------------||
--2-----------------|--4-----------------|--6-----------------|----------------------*||
--0-----------------|--2-----------------|--4-----------------|--9----4----2----4----*||
--0-----------------|--2-----------------|--4-----------------|--9----4----2----4-----||
--0-----------------|--2-----------------|--4-----------------|--9----4----2----4-----||




Duration Legend
---------------
W - whole
H - half
Q - quarter
E - 8th
. - note dotted

Bass

      E  E  E  E  E  E  E  E     E  Q.     H           E  E  E  E  E  E  E  E     E  Q.     H         
G||---------------------------|---------------------|--------------------------|---------------------|
D||*--------------------------|---------------------|--------------------------|---------------------|
A||---7--7--7--7--7--7--7--7--|--L---------5--------|--7--7--7--7--7--7--7--7--|--L---------5--------|
E||*--------------------------|-----8---------------|--------------------------|-----8---------------|
B||---------------------------|---------------------|--------------------------|---------------------|


  E  E  E  E  E  E  E  E     E  E  E  E  E  E  E  E     E  E  E  E  E  E  E  E     E  E  E  E  E  E  E  E   
--------------------------|--------------------------|--------------------------|-----7-----7-----7-----7--|
--------------------------|--------------------------|--------------------------|--------------------------|
-----7-----7-----7-----7--|-----7-----7-----7-----7--|-----7-----7-----7-----7--|--5-----5-----5-----5-----|
--------------------------|--------------------------|--------------------------|--------------------------|
--5-----5-----5-----5-----|--5-----5-----5-----5-----|--5-----5-----5-----5-----|--------------------------|


  E  E  E  E  E  E  E  E     E  E  E  E  E  E  E  E     E  E  E  E  E  E  E  E     E  E  E  E  E  E  E  E   
--------------------------|--------------------------|--------------------------|-----7-----7-----7-----7--|
--------------------------|--------------------------|--------------------------|--------------------------|
-----7-----7-----7-----7--|-----7-----7-----7-----7--|-----7-----7-----7-----7--|--5-----5-----5-----5-----|
--------------------------|--------------------------|--------------------------|--------------------------|
--5-----5-----5-----5-----|--5-----5-----5-----5-----|--5-----5-----5-----5-----|--------------------------|


  E  E  E  E  E  E  E  E     E  E  E  E  E  E  E  E     E  E  E  E  E  Q.        E  E  E  E  E  E  E  E   
--------------------------|--------------------------|------------------------|--------------------------|
--------------------------|--------------------------|------------------------|-----------------------9--|
--------3--3--------3--3--|--------5--5--------5--5--|--------7--7------------|--7--5--7-----------7-----|
--------------3--3--------|--------------5--5--------|--------------7--7------|-----------7-----7--------|
--1--1--------------------|--3--3--------------------|--0--0------------------|--------------8-----------|


  E  E  E  E  E  E  E  E     E  E  E  E  E  E  E  E     E  E  E  E  E  E  E  E     E  E  E  E  E  E  Q   Repeat
--------------------------|--------------------------|--------------------------|--------------------------||
--------------------------|--------------------------|--------------------------|--7--9-------------------*||
--------3--3--------3--3--|--------5--5--------5--5--|-----7--7-----7--7--5--7--|--------5--7--------------||
--3-----------3--3--------|--------------5--5--------|--------------------------|--------------5--7-------*||
-----5--------------------|--3--3--------------------|--0--------0--------------|--------------------5-----||




Duration Legend
---------------
W - whole
H - half
Q - quarter
E - 8th
Login or Register to remove this ad.

2 comments on Act 2 Boss

5 5 5 5

5

5 5 5 5

awesome

5

great job on this Jacob.